  0
SECTION
  2
HEADER
  9
$ACADVER
  1
AC1014
  9
$ACADMAINTVER
 70
     9
  9
$DWGCODEPAGE
  3
ANSI_1252
  9
$INSBASE
 10
0.0
 20
4400.0
 30
0.0
  9
$EXTMIN
 10
0.0
 20
4430.0
 30
0.0
  9
$EXTMAX
 10
820.0
 20
5500.0
 30
0.0
  9
$LIMMIN
 10
0.0
 20
0.0
  9
$LIMMAX
 10
12.0
 20
9.0
  9
$ORTHOMODE
 70
     0
  9
$REGENMODE
 70
     1
  9
$FILLMODE
 70
     1
  9
$QTEXTMODE
 70
     0
  9
$MIRRTEXT
 70
     1
  9
$DRAGMODE
 70
     2
  9
$LTSCALE
 40
0.25
  9
$OSMODE
 70
    37
  9
$ATTMODE
 70
     1
  9
$TEXTSIZE
 40
9.0
  9
$TRACEWID
 40
0.05
  9
$TEXTSTYLE
  7
STANDARD
  9
$CLAYER
  8
0
  9
$CELTYPE
  6
BYLAYER
  9
$CECOLOR
 62
   256
  9
$CELTSCALE
 40
1.0
  9
$DELOBJ
 70
     1
  9
$DISPSILH
 70
     0
  9
$DIMSCALE
 40
1.0
  9
$DIMASZ
 40
1.0
  9
$DIMEXO
 40
1.0
  9
$DIMDLI
 40
0.38
  9
$DIMRND
 40
0.0
  9
$DIMDLE
 40
0.0
  9
$DIMEXE
 40
1.0
  9
$DIMTP
 40
0.0
  9
$DIMTM
 40
0.0
  9
$DIMTXT
 40
2.0
  9
$DIMCEN
 40
0.09
  9
$DIMTSZ
 40
0.0
  9
$DIMTOL
 70
     0
  9
$DIMLIM
 70
     0
  9
$DIMTIH
 70
     0
  9
$DIMTOH
 70
     0
  9
$DIMSE1
 70
     0
  9
$DIMSE2
 70
     0
  9
$DIMTAD
 70
     1
  9
$DIMZIN
 70
     0
  9
$DIMBLK
  1

  9
$DIMASO
 70
     1
  9
$DIMSHO
 70
     1
  9
$DIMPOST
  1

  9
$DIMAPOST
  1

  9
$DIMALT
 70
     0
  9
$DIMALTD
 70
     2
  9
$DIMALTF
 40
25.4
  9
$DIMLFAC
 40
1.0
  9
$DIMTOFL
 70
     0
  9
$DIMTVP
 40
0.0
  9
$DIMTIX
 70
     0
  9
$DIMSOXD
 70
     1
  9
$DIMSAH
 70
     0
  9
$DIMBLK1
  1

  9
$DIMBLK2
  1

  9
$DIMSTYLE
  2
STANDARD
  9
$DIMCLRD
 70
     0
  9
$DIMCLRE
 70
     0
  9
$DIMCLRT
 70
     0
  9
$DIMTFAC
 40
1.0
  9
$DIMGAP
 40
1.0
  9
$DIMJUST
 70
     0
  9
$DIMSD1
 70
     0
  9
$DIMSD2
 70
     0
  9
$DIMTOLJ
 70
     1
  9
$DIMTZIN
 70
     0
  9
$DIMALTZ
 70
     0
  9
$DIMALTTZ
 70
     0
  9
$DIMFIT
 70
     3
  9
$DIMUPT
 70
     0
  9
$DIMUNIT
 70
     2
  9
$DIMDEC
 70
     3
  9
$DIMTDEC
 70
     3
  9
$DIMALTU
 70
     2
  9
$DIMALTTD
 70
     2
  9
$DIMTXSTY
  7
STANDARD
  9
$DIMAUNIT
 70
     0
  9
$LUNITS
 70
     2
  9
$LUPREC
 70
     4
  9
$SKETCHINC
 40
0.1
  9
$FILLETRAD
 40
0.0
  9
$AUNITS
 70
     0
  9
$AUPREC
 70
     0
  9
$MENU
  1
.
  9
$ELEVATION
 40
0.0
  9
$PELEVATION
 40
0.0
  9
$THICKNESS
 40
0.0
  9
$LIMCHECK
 70
     0
  9
$CHAMFERA
 40
0.5
  9
$CHAMFERB
 40
0.5
  9
$CHAMFERC
 40
0.0
  9
$CHAMFERD
 40
0.0
  9
$SKPOLY
 70
     0
  9
$TDCREATE
 40
2452346.631391203
  9
$TDUPDATE
 40
2458067.708446331
  9
$TDINDWG
 40
11.5166403241
  9
$TDUSRTIMER
 40
11.5166363889
  9
$USRTIMER
 70
     1
  9
$ANGBASE
 50
0.0
  9
$ANGDIR
 70
     0
  9
$PDMODE
 70
     0
  9
$PDSIZE
 40
0.0
  9
$PLINEWID
 40
0.0
  9
$COORDS
 70
     1
  9
$SPLFRAME
 70
     0
  9
$SPLINETYPE
 70
     6
  9
$SPLINESEGS
 70
     8
  9
$ATTDIA
 70
     0
  9
$ATTREQ
 70
     1
  9
$HANDLING
 70
     1
  9
$HANDSEED
  5
9640
  9
$SURFTAB1
 70
     6
  9
$SURFTAB2
 70
     6
  9
$SURFTYPE
 70
     6
  9
$SURFU
 70
     6
  9
$SURFV
 70
     6
  9
$UCSNAME
  2

  9
$UCSORG
 10
0.0
 20
0.0
 30
0.0
  9
$UCSXDIR
 10
1.0
 20
0.0
 30
0.0
  9
$UCSYDIR
 10
0.0
 20
1.0
 30
0.0
  9
$PUCSNAME
  2

  9
$PUCSORG
 10
0.0
 20
0.0
 30
0.0
  9
$PUCSXDIR
 10
1.0
 20
0.0
 30
0.0
  9
$PUCSYDIR
 10
0.0
 20
1.0
 30
0.0
  9
$USERI1
 70
     0
  9
$USERI2
 70
     0
  9
$USERI3
 70
     0
  9
$USERI4
 70
     0
  9
$USERI5
 70
     0
  9
$USERR1
 40
0.0
  9
$USERR2
 40
0.0
  9
$USERR3
 40
0.0
  9
$USERR4
 40
0.0
  9
$USERR5
 40
0.0
  9
$WORLDVIEW
 70
     1
  9
$SHADEDGE
 70
     3
  9
$SHADEDIF
 70
    70
  9
$TILEMODE
 70
     0
  9
$MAXACTVP
 70
    64
  9
$PINSBASE
 10
0.0
 20
0.0
 30
0.0
  9
$PLIMCHECK
 70
     0
  9
$PEXTMIN
 10
0.1646194596182866
 20
0.1952514857093313
 30
-0.0015258207003583
  9
$PEXTMAX
 10
8.099647310808372
 20
10.54887369530456
 30
0.0000000349246037
  9
$PLIMMIN
 10
-0.1249999981226884
 20
-0.1249999981226884
  9
$PLIMMAX
 10
8.374999761581421
 20
10.87499976158142
  9
$UNITMODE
 70
     0
  9
$VISRETAIN
 70
     1
  9
$PLINEGEN
 70
     0
  9
$PSLTSCALE
 70
     1
  9
$TREEDEPTH
 70
  3020
  9
$PICKSTYLE
 70
     1
  9
$CMLSTYLE
  2
STANDARD
  9
$CMLJUST
 70
     0
  9
$CMLSCALE
 40
1.0
  9
$PROXYGRAPHICS
 70
     1
  9
$MEASUREMENT
 70
     0
  0
ENDSEC
  0
SECTION
  2
CLASSES
  0
CLASS
  1
ACDBDICTIONARYWDFLT
  2
AcDbDictionaryWithDefault
  3
ObjectDBX Classes
 90
        0
280
     0
281
     0
  0
CLASS
  1
ACDBPLACEHOLDER
  2
AcDbPlaceHolder
  3
ObjectDBX Classes
 90
        0
280
     0
281
     0
  0
CLASS
  1
LAYOUT
  2
AcDbLayout
  3
ObjectDBX Classes
 90
        0
280
     0
281
     0
  0
CLASS
  1
DICTIONARYVAR
  2
AcDbDictionaryVar
  3
ObjectDBX Classes
 90
        0
280
     0
281
     0
  0
CLASS
  1
MATERIAL
  2
AcDbMaterial
  3
ObjectDBX Classes
 90
     1153
280
     0
281
     0
  0
CLASS
  1
VISUALSTYLE
  2
AcDbVisualStyle
  3
ObjectDBX Classes
 90
     4095
280
     0
281
     0
  0
CLASS
  1
TABLESTYLE
  2
AcDbTableStyle
  3
ObjectDBX Classes
 90
     4095
280
     0
281
     0
  0
CLASS
  1
SORTENTSTABLE
  2
AcDbSortentsTable
  3
ObjectDBX Classes
 90
        0
280
     0
281
     0
  0
CLASS
  1
SCALE
  2
AcDbScale
  3
ObjectDBX Classes
 90
     1153
280
     0
281
     0
  0
CLASS
  1
MLEADERSTYLE
  2
AcDbMLeaderStyle
  3
ACDB_MLEADERSTYLE_CLASS
 90
     4095
280
     0
281
     0
  0
CLASS
  1
SOLID_BACKGROUND
  2
AcDbSolidBackground
  3
SCENEOE
 90
     4095
280
     0
281
     0
  0
CLASS
  1
NPOCOLLECTION
  2
AcDbImpNonPersistentObjectsCollection
  3
ObjectDBX Classes
 90
     1153
280
     1
281
     0
  0
CLASS
  1
CELLSTYLEMAP
  2
AcDbCellStyleMap
  3
ObjectDBX Classes
 90
     1152
280
     0
281
     0
  0
CLASS
  1
ACDBSECTIONVIEWSTYLE
  2
AcDbSectionViewStyle
  3
ObjectDBX Classes
 90
     1025
280
     0
281
     0
  0
CLASS
  1
ACDBDETAILVIEWSTYLE
  2
AcDbDetailViewStyle
  3
ObjectDBX Classes
 90
     1025
280
     0
281
     0
  0
CLASS
  1
EXACXREFPANELOBJECT
  2
ExAcXREFPanelObject
  3
EXAC_ESW
 90
     1025
280
     1
281
     0
  0
CLASS
  1
RAPIDRTRENDERSETTINGS
  2
AcDbRapidRTRenderSettings
  3
ObjectDBX Classes
 90
     1024
280
     0
281
     0
  0
CLASS
  1
XRECORD
  2
AcDbXrecord
  3
ObjectDBX Classes
 90
        0
280
     0
281
     0
  0
CLASS
  1
LWPOLYLINE
  2
AcDbPolyline
  3
ObjectDBX Classes
 90
        0
280
     0
281
     1
  0
CLASS
  1
HATCH
  2
AcDbHatch
  3
ObjectDBX Classes
 90
        0
280
     0
281
     1
  0
ENDSEC
  0
SECTION
  2
TABLES
  0
TABLE
  2
VPORT
  5
2B
102
{ACAD_XDICTIONARY
360
30
102
}
330
0
100
AcDbSymbolTable
 70
     1
  0
VPORT
  5
2C
330
2B
100
AcDbSymbolTableRecord
100
AcDbViewportTableRecord
  2
*ACTIVE
 70
     0
 10
0.0
 20
0.0
 11
1.0
 21
1.0
 12
187.375347441425
 22
-4647.564139855109
 13
0.0
 23
0.0
 14
0.5
 24
0.5
 15
0.5
 25
0.5
 16
0.0
 26
0.0
 36
10.36989322064448
 17
222.6246544677863
 27
9612.510902065504
 37
0.0
 40
1079.156785008017
 41
2.607336956521739
 42
50.0
 43
0.0
 44
0.0
 50
0.0
 51
0.0
 71
     0
 72
  2000
 73
     1
 74
     3
 75
     0
 76
     1
 77
     0
 78
     0
1001
ACAD_NAV_VCDISPLAY
1070
     3
  0
ENDTAB
  0
TABLE
  2
LTYPE
  5
26
330
0
100
AcDbSymbolTable
 70
     1
  0
LTYPE
  5
27
330
26
100
AcDbSymbolTableRecord
100
AcDbLinetypeTableRecord
  2
BYBLOCK
 70
     0
  3

 72
    65
 73
     0
 40
0.0
  0
LTYPE
  5
28
330
26
100
AcDbSymbolTableRecord
100
AcDbLinetypeTableRecord
  2
BYLAYER
 70
     0
  3

 72
    65
 73
     0
 40
0.0
  0
LTYPE
  5
10
330
26
100
AcDbSymbolTableRecord
100
AcDbLinetypeTableRecord
  2
CONTINUOUS
 70
     0
  3
Solid line
 72
    65
 73
     0
 40
0.0
  0
ENDTAB
  0
TABLE
  2
LAYER
  5
1D
102
{ACAD_XDICTIONARY
360
1E
102
}
330
0
100
AcDbSymbolTable
 70
     1
  0
LAYER
  5
6
102
{ACAD_XDICTIONARY
360
7
102
}
330
1D
100
AcDbSymbolTableRecord
100
AcDbLayerTableRecord
  2
0
 70
     0
 62
     7
  6
CONTINUOUS
  0
ENDTAB
  0
TABLE
  2
STYLE
  5
22
330
0
100
AcDbSymbolTable
 70
     2
  0
STYLE
  5
23
330
22
100
AcDbSymbolTableRecord
100
AcDbTextStyleTableRecord
  2
STANDARD
 70
     0
 40
0.0
 41
1.0
 50
0.0
 71
     0
 42
9.0
  3

  4

1001
ACAD
1000
Arial Rounded MT Bold
1071
 33554466
  0
STYLE
  5
34
330
22
100
AcDbSymbolTableRecord
100
AcDbTextStyleTableRecord
  2
ARIAL
 70
     0
 40
4.0
 41
1.0
 50
0.0
 71
     0
 42
4.0
  3
arial.ttf
  4

1001
ACAD
1000
Arial
1071
       34
  0
ENDTAB
  0
TABLE
  2
VIEW
  5
29
330
0
100
AcDbSymbolTable
 70
     0
  0
ENDTAB
  0
TABLE
  2
UCS
  5
2A
330
0
100
AcDbSymbolTable
 70
     0
  0
ENDTAB
  0
TABLE
  2
APPID
  5
31
330
0
100
AcDbSymbolTable
 70
     8
  0
APPID
  5
24
330
31
100
AcDbSymbolTableRecord
100
AcDbRegAppTableRecord
  2
ACAD
 70
     0
  0
APPID
  5
2F
330
31
100
AcDbSymbolTableRecord
100
AcDbRegAppTableRecord
  2
ACAD_NAV_VCDISPLAY
 70
     0
  0
APPID
  5
1C
330
31
100
AcDbSymbolTableRecord
100
AcDbRegAppTableRecord
  2
ACAD_PSEXT
 70
     0
  0
APPID
  5
1CC7
330
31
100
AcDbSymbolTableRecord
100
AcDbRegAppTableRecord
  2
ACAD_MLEADERVER
 70
     0
  0
APPID
  5
1CDE
330
31
100
AcDbSymbolTableRecord
100
AcDbRegAppTableRecord
  2
ACADANNOTATIVE
 70
     0
  0
APPID
  5
1CDF
330
31
100
AcDbSymbolTableRecord
100
AcDbRegAppTableRecord
  2
ACAD_DSTYLE_DIMJAG
 70
     0
  0
APPID
  5
1CE0
330
31
100
AcDbSymbolTableRecord
100
AcDbRegAppTableRecord
  2
ACAD_DSTYLE_DIMTALN
 70
     0
  0
APPID
  5
4C5F
330
31
100
AcDbSymbolTableRecord
100
AcDbRegAppTableRecord
  2
ACAD_EXEMPT_FROM_CAD_STAND
 70
     0
  0
ENDTAB
  0
TABLE
  2
DIMSTYLE
  5
32
330
0
100
AcDbSymbolTable
 70
     2
  0
DIMSTYLE
105
33
330
32
100
AcDbSymbolTableRecord
100
AcDbDimStyleTableRecord
  2
STANDARD
 70
     0
  3

  4

  5

  6

  7

 40
1.0
 41
1.0
 42
1.0
 43
0.38
 44
1.0
 45
0.0
 46
0.0
 47
0.0
 48
0.0
140
2.0
141
0.09
142
0.0
143
25.4
144
1.0
145
0.0
146
1.0
147
1.0
 71
     0
 72
     0
 73
     0
 74
     0
 75
     0
 76
     0
 77
     1
 78
     0
170
     0
171
     2
172
     0
173
     0
174
     0
175
     1
176
     0
177
     0
178
     0
270
     2
271
     4
272
     4
273
     2
274
     2
340
34
275
     0
280
     0
281
     0
282
     0
283
     1
284
     0
285
     0
286
     0
287
     5
288
     0
  0
DIMSTYLE
105
1CDD
330
32
100
AcDbSymbolTableRecord
100
AcDbDimStyleTableRecord
  2
ANNOTATIVE
 70
     0
  3

  4

  5

  6

  7

 40
0.0
 41
0.18
 42
0.0625
 43
0.38
 44
0.18
 45
0.0
 46
0.0
 47
0.0
 48
0.0
140
0.18
141
0.09
142
0.0
143
25.4
144
1.0
145
0.0
146
1.0
147
0.09
 71
     0
 72
     0
 73
     1
 74
     1
 75
     0
 76
     0
 77
     0
 78
     0
170
     0
171
     2
172
     0
173
     0
174
     0
175
     0
176
     0
177
     0
178
     0
270
     2
271
     4
272
     4
273
     2
274
     2
340
23
275
     0
280
     0
281
     0
282
     0
283
     1
284
     0
285
     0
286
     0
287
     3
288
     0
1001
ACADANNOTATIVE
1000
AnnotativeData
1002
{
1070
     1
1070
     1
1002
}
1001
ACAD_DSTYLE_DIMJAG
1070
   388
1040
1.5
1001
ACAD_DSTYLE_DIMTALN
1070
   392
1070
     0
  0
ENDTAB
  0
TABLE
  2
BLOCK_RECORD
  5
1
330
0
100
AcDbSymbolTable
 70
     0
  0
BLOCK_RECORD
  5
2
102
{ACAD_XDICTIONARY
360
3
102
}
330
1
100
AcDbSymbolTableRecord
100
AcDbBlockTableRecord
  2
*MODEL_SPACE
  0
BLOCK_RECORD
  5
16
330
1
100
AcDbSymbolTableRecord
100
AcDbBlockTableRecord
  2
*PAPER_SPACE
  0
ENDTAB
  0
ENDSEC
  0
SECTION
  2
BLOCKS
  0
BLOCK
  5
5
330
2
100
AcDbEntity
  8
0
100
AcDbBlockBegin
  2
*MODEL_SPACE
 70
     0
 10
0.0
 20
0.0
 30
0.0
  3
*MODEL_SPACE
  1

  0
ENDBLK
  5
11
330
2
100
AcDbEntity
  8
0
100
AcDbBlockEnd
  0
BLOCK
  5
17
330
16
100
AcDbEntity
 67
     1
  8
0
100
AcDbBlockBegin
  2
*PAPER_SPACE
 70
     0
 10
0.0
 20
0.0
 30
0.0
  3
*PAPER_SPACE
  1

  0
ENDBLK
  5
18
330
16
100
AcDbEntity
 67
     1
  8
0
100
AcDbBlockEnd
  0
ENDSEC
  0
SECTION
  2
ENTITIES
  0
LWPOLYLINE
  5
8332
330
2
100
AcDbEntity
  8
0
100
AcDbPolyline
 90
        4
 70
     1
 43
0.0
 10
0.0
 20
4430.0
 10
820.0
 20
4430.0
 10
820.0
 20
5500.0
 10
0.0
 20
5500.0
  0
LWPOLYLINE
  5
8C6F
330
2
100
AcDbEntity
  8
0
100
AcDbPolyline
 90
        2
 70
     0
 43
2.25
 10
35.17475951956294
 20
5446.734156786815
 10
784.8252404804371
 20
5446.734156786815
  0
MTEXT
  5
8C70
330
2
100
AcDbEntity
  8
0
100
AcDbMText
 10
34.39603476259981
 20
5473.070730259527
 30
0.0
 40
18.0
 41
190.4856753069578
 71
     1
 72
     5
  1
\A1;Weather Shield{\H0.46667x;\S^ ®;}
  7
ARIAL
  0
MTEXT
  5
8C71
102
{ACAD_XDICTIONARY
360
962A
102
}
330
2
100
AcDbEntity
  8
0
100
AcDbMText
 10
784.6491768580481
 20
5473.070730259527
 30
0.0
 40
18.0
 41
331.07958248981
 71
     3
 72
     5
  1
Casement Transom Windows
  7
ARIAL
  0
MTEXT
  5
8C73
102
{ACAD_XDICTIONARY
360
962D
102
}
330
2
100
AcDbEntity
  8
0
100
AcDbMText
 10
782.8318522728914
 20
5440.185035993409
 30
0.0
 40
12.0
 41
124.8622100954979
 71
     3
 72
     5
  1
Elevation Details
  7
ARIAL
  0
MTEXT
  5
8C75
330
2
100
AcDbEntity
  8
0
100
AcDbMText
 10
35.38258899574248
 20
5440.185035993409
 30
0.0
 40
12.0
 41
192.7793587644364
 71
     1
 72
     5
  1
\A1;Premium Coastal Series{\H0.29167x;\STM^ ;}
  7
ARIAL
  0
LWPOLYLINE
  5
8C76
330
2
100
AcDbEntity
  8
0
100
AcDbPolyline
 90
        2
 70
     0
 43
1.125
 10
35.17475951956294
 20
4468.068311299194
 10
784.8252404804371
 20
4468.068311299194
  0
MTEXT
  5
8C77
102
{ACAD_XDICTIONARY
360
9630
102
}
330
2
100
AcDbEntity
  8
0
100
AcDbMText
 10
35.17475951956294
 20
4459.99650190952
 30
0.0
 40
7.425000000000001
 41
111.8358969986357
 71
     1
 72
     5
  1
www.weathershield.com
  7
ARIAL
  0
MTEXT
  5
8C79
102
{ACAD_XDICTIONARY
360
9633
102
}
330
2
100
AcDbEntity
  8
0
100
AcDbMText
 10
410.0
 20
4460.194001611515
 30
0.0
 40
7.425000000000001
 41
156.2288881309687
 71
     2
 72
     5
  1
Weather Shield Windows & Doors
  7
ARIAL
  0
MTEXT
  5
8C7B
102
{ACAD_XDICTIONARY
360
9636
102
}
330
2
100
AcDbEntity
  8
0
100
AcDbMText
 10
784.8252404804371
 20
4459.817368711952
 30
0.0
 40
7.425000000000001
 41
50.1668656207367
 71
     3
 72
     5
  1
REV 7/17
  7
ARIAL
  0
LINE
  5
9152
330
2
100
AcDbEntity
  8
0
100
AcDbLine
 10
83.17475951956294
 20
5352.819179017895
 30
0.0
 11
83.17475951956294
 21
5140.319179017899
 31
0.0
  0
LINE
  5
9153
330
2
100
AcDbEntity
  8
0
100
AcDbLine
 10
59.17475951956294
 20
5376.819179017895
 30
0.0
 11
59.17475951956294
 21
5140.319179017899
 31
0.0
  0
LINE
  5
9154
330
2
100
AcDbEntity
  8
0
100
AcDbLine
 10
47.17475951956294
 20
5388.819179017895
 30
0.0
 11
47.17475951956294
 21
5140.319179017899
 31
0.0
  0
LINE
  5
9155
330
2
100
AcDbEntity
  8
0
100
AcDbLine
 10
35.17475951956294
 20
5400.819179017895
 30
0.0
 11
35.17475951956294
 21
5140.319179017899
 31
0.0
  0
LINE
  5
9156
330
2
100
AcDbEntity
  8
0
100
AcDbLine
 10
71.17475951956294
 20
5364.819179017895
 30
0.0
 11
71.17475951956294
 21
5140.319179017899
 31
0.0
  0
TEXT
  5
9157
330
2
100
AcDbEntity
  8
0
100
AcDbText
 10
80.17475951956385
 20
5239.146085223661
 30
0.0
 40
6.0
  1
18 3/4"
 50
90.0
  7
ARIAL
 72
     1
 11
77.17475951956385
 21
5252.285921512883
 31
0.0
100
AcDbText
 73
     2
  0
TEXT
  5
9158
330
2
100
AcDbEntity
  8
0
100
AcDbText
 10
56.17475951956294
 20
5243.940764623388
 30
0.0
 40
6.0
  1
2'-0"
 50
90.0
  7
ARIAL
 72
     1
 11
53.17475951956294
 21
5252.285921512883
 31
0.0
100
AcDbText
 73
     2
  0
TEXT
  5
9159
330
2
100
AcDbEntity
  8
0
100
AcDbText
 10
44.17475951956294
 20
5234.619482222296
 30
0.0
 40
6.0
  1
1'-11 1/2"
 50
90.0
  7
ARIAL
 72
     1
 11
41.17475951956294
 21
5252.285921512883
 31
0.0
100
AcDbText
 73
     2
  0
TEXT
  5
915A
330
2
100
AcDbEntity
  8
0
100
AcDbText
 10
80.17475951956385
 20
5146.498625246434
 30
0.0
 40
6.0
  1
30 3/4"
 50
90.0
  7
ARIAL
 72
     1
 11
77.17475951956385
 21
5159.638461535656
 31
0.0
100
AcDbText
 73
     2
  0
TEXT
  5
915B
330
2
100
AcDbEntity
  8
0
100
AcDbText
 10
56.17475951956294
 20
5151.293304646161
 30
0.0
 40
6.0
  1
3'-0"
 50
90.0
  7
ARIAL
 72
     1
 11
53.17475951956294
 21
5159.638461535656
 31
0.0
100
AcDbText
 73
     2
  0
TEXT
  5
915C
330
2
100
AcDbEntity
  8
0
100
AcDbText
 10
68.17475951956294
 20
5151.854476831943
 30
0.0
 40
6.0
  1
914
 50
90.0
  7
ARIAL
 72
     1
 11
65.17475951956294
 21
5158.846973421301
 31
0.0
100
AcDbText
 73
     2
  0
TEXT
  5
915D
330
2
100
AcDbEntity
  8
0
100
AcDbText
 10
44.17475951956294
 20
5141.97202224507
 30
0.0
 40
6.0
  1
2'-11 1/2"
 50
90.0
  7
ARIAL
 72
     1
 11
41.17475951956294
 21
5159.638461535656
 31
0.0
100
AcDbText
 73
     2
  0
TEXT
  5
915E
330
2
100
AcDbEntity
  8
0
100
AcDbText
 10
44.17475951956294
 20
5193.305214115908
 30
0.0
 40
6.0
  1
2'-5 1/2"
 50
90.0
  7
ARIAL
 72
     1
 11
41.17475951956294
 21
5208.640821210041
 31
0.0
100
AcDbText
 73
     2
  0
TEXT
  5
915F
330
2
100
AcDbEntity
  8
0
100
AcDbText
 10
56.17475951956294
 20
5200.295664320546
 30
0.0
 40
6.0
  1
2'-6"
 50
90.0
  7
ARIAL
 72
     1
 11
53.17475951956294
 21
5208.640821210041
 31
0.0
100
AcDbText
 73
     2
  0
TEXT
  5
9160
330
2
100
AcDbEntity
  8
0
100
AcDbText
 10
80.17475951956385
 20
5195.500984920819
 30
0.0
 40
6.0
  1
24 3/4"
 50
90.0
  7
ARIAL
 72
     1
 11
77.17475951956385
 21
5208.640821210041
 31
0.0
100
AcDbText
 73
     2
  0
TEXT
  5
9161
330
2
100
AcDbEntity
  8
0
100
AcDbText
 10
68.17475951956294
 20
5201.648324620683
 30
0.0
 40
6.0
  1
762
 50
90.0
  7
ARIAL
 72
     1
 11
65.17475951956294
 21
5208.640821210041
 31
0.0
100
AcDbText
 73
     2
  0
TEXT
  5
9162
330
2
100
AcDbEntity
  8
0
100
AcDbText
 10
68.17475951956294
 20
5245.293424923524
 30
0.0
 40
6.0
  1
610
 50
90.0
  7
ARIAL
 72
     1
 11
65.17475951956294
 21
5252.285921512883
 31
0.0
100
AcDbText
 73
     2
  0
TEXT
  5
9163
330
2
100
AcDbEntity
  8
0
100
AcDbText
 10
63.18994496476625
 20
5367.777115943116
 30
0.0
 40
6.0
  1
Metric R.O. (mm)
  7
ARIAL
100
AcDbText
  0
TEXT
  5
9164
330
2
100
AcDbEntity
  8
0
100
AcDbText
 10
51.64515891310839
 20
5379.777115943116
 30
0.0
 40
6.0
  1
Rough Opening
  7
ARIAL
100
AcDbText
  0
TEXT
  5
9165
330
2
100
AcDbEntity
  8
0
100
AcDbText
 10
75.18994496476625
 20
5355.777115943116
 30
0.0
 40
6.0
  1
Glass Size
  7
ARIAL
100
AcDbText
  0
TEXT
  5
9166
330
2
100
AcDbEntity
  8
0
100
AcDbText
 10
37.69099257671587
 20
5391.777115943116
 30
0.0
 40
6.0
  1
Jamb Dimension
  7
ARIAL
100
AcDbText
  0
TEXT
  5
9167
330
2
100
AcDbEntity
  8
0
100
AcDbText
 10
34.940156264709
 20
5405.853129862518
 30
0.0
 40
8.0
  1
Casement Transom Windows (1210) Insulated Glass
  7
ARIAL
100
AcDbText
  0
LINE
  5
9168
330
2
100
AcDbEntity
  8
0
100
AcDbLine
 10
291.5154432104455
 20
5043.997885709598
 30
0.0
 11
83.17475951956294
 21
5043.997885709598
 31
0.0
  0
LINE
  5
9169
330
2
100
AcDbEntity
  8
0
100
AcDbLine
 10
291.5154432104455
 20
5091.997885709598
 30
0.0
 11
35.17475951956294
 21
5091.997885709598
 31
0.0
  0
LINE
  5
916A
330
2
100
AcDbEntity
  8
0
100
AcDbLine
 10
291.5154432104455
 20
5079.997885709598
 30
0.0
 11
47.17475951956294
 21
5079.997885709598
 31
0.0
  0
LINE
  5
916B
330
2
100
AcDbEntity
  8
0
100
AcDbLine
 10
291.5154432104455
 20
5067.997885709598
 30
0.0
 11
59.17475951956294
 21
5067.997885709598
 31
0.0
  0
LINE
  5
916C
330
2
100
AcDbEntity
  8
0
100
AcDbLine
 10
291.5154432104455
 20
5055.997885709598
 30
0.0
 11
71.17475951956294
 21
5055.997885709598
 31
0.0
  0
TEXT
  5
916D
330
2
100
AcDbEntity
  8
0
100
AcDbText
 10
63.18994496476625
 20
5058.95582263482
 30
0.0
 40
6.0
  1
Metric R.O. (mm)
  7
ARIAL
100
AcDbText
  0
TEXT
  5
916E
330
2
100
AcDbEntity
  8
0
100
AcDbText
 10
51.259657469991
 20
5070.95582263482
 30
0.0
 40
6.0
  1
Rough Opening
  7
ARIAL
100
AcDbText
  0
TEXT
  5
916F
330
2
100
AcDbEntity
  8
0
100
AcDbText
 10
75.18994496476625
 20
5046.95582263482
 30
0.0
 40
6.0
  1
Glass Size
  7
ARIAL
100
AcDbText
  0
TEXT
  5
9170
330
2
100
AcDbEntity
  8
0
100
AcDbText
 10
38.08916370099723
 20
5082.95582263482
 30
0.0
 40
6.0
  1
Jamb Dimension
  7
ARIAL
100
AcDbText
  0
TEXT
  5
9171
330
2
100
AcDbEntity
  8
0
100
AcDbText
 10
158.8926757655581
 20
5070.997885709598
 30
0.0
 40
6.0
  1
5'-6"
  7
ARIAL
 72
     1
 11
167.2378326550534
 21
5073.997885709598
 31
0.0
100
AcDbText
 73
     2
  0
TEXT
  5
9172
330
2
100
AcDbEntity
  8
0
100
AcDbText
 10
157.9145038692416
 20
5058.997885709598
 30
0.0
 40
6.0
  1
1676
  7
ARIAL
 72
     1
 11
167.2378326550534
 21
5061.997885709598
 31
0.0
100
AcDbText
 73
     2
  0
TEXT
  5
9173
330
2
100
AcDbEntity
  8
0
100
AcDbText
 10
156.5277199506999
 20
5046.997885709598
 30
0.0
 40
6.0
  1
60 3/4"
  7
ARIAL
 72
     1
 11
169.6675562399223
 21
5049.997885709598
 31
0.0
100
AcDbText
 73
     2
  0
TEXT
  5
9174
330
2
100
AcDbEntity
  8
0
100
AcDbText
 10
151.9022255609196
 20
5082.997885709598
 30
0.0
 40
6.0
  1
5'-5 1/2"
  7
ARIAL
 72
     1
 11
167.2378326550534
 21
5085.997885709598
 31
0.0
100
AcDbText
 73
     2
  0
TEXT
  5
9175
330
2
100
AcDbEntity
  8
0
100
AcDbText
 10
247.7652694010767
 20
5070.997885709598
 30
0.0
 40
6.0
  1
6'-0"
  7
ARIAL
 72
     1
 11
256.1104262905719
 21
5073.997885709598
 31
0.0
100
AcDbText
 73
     2
  0
TEXT
  5
9176
330
2
100
AcDbEntity
  8
0
100
AcDbText
 10
246.7870975047602
 20
5058.997885709598
 30
0.0
 40
6.0
  1
1829
  7
ARIAL
 72
     1
 11
256.1104262905719
 21
5061.997885709598
 31
0.0
100
AcDbText
 73
     2
  0
TEXT
  5
9177
330
2
100
AcDbEntity
  8
0
100
AcDbText
 10
245.4003135862185
 20
5046.997885709598
 30
0.0
 40
6.0
  1
66 3/4"
  7
ARIAL
 72
     1
 11
258.5401498754409
 21
5049.997885709598
 31
0.0
100
AcDbText
 73
     2
  0
TEXT
  5
9178
330
2
100
AcDbEntity
  8
0
100
AcDbText
 10
238.4439869999853
 20
5082.997885709598
 30
0.0
 40
6.0
  1
5'-11 1/2"
  7
ARIAL
 72
     1
 11
256.1104262905719
 21
5085.997885709598
 31
0.0
100
AcDbText
 73
     2
  0
TEXT
  5
9179
330
2
100
AcDbEntity
  8
0
100
AcDbText
 10
80.17475951956476
 20
5315.783730173466
 30
0.0
 40
6.0
  1
12 3/4"
 50
90.0
  7
ARIAL
 72
     1
 11
77.17475951956476
 21
5328.923566462689
 31
0.0
100
AcDbText
 73
     2
  0
TEXT
  5
917A
330
2
100
AcDbEntity
  8
0
100
AcDbText
 10
56.17475951956385
 20
5320.578409573193
 30
0.0
 40
6.0
  1
1'-6"
 50
90.0
  7
ARIAL
 72
     1
 11
53.17475951956385
 21
5328.923566462689
 31
0.0
100
AcDbText
 73
     2
  0
TEXT
  5
917B
330
2
100
AcDbEntity
  8
0
100
AcDbText
 10
44.17475951956385
 20
5313.587959368555
 30
0.0
 40
6.0
  1
1'-5 1/2"
 50
90.0
  7
ARIAL
 72
     1
 11
41.17475951956385
 21
5328.923566462689
 31
0.0
100
AcDbText
 73
     2
  0
TEXT
  5
917C
330
2
100
AcDbEntity
  8
0
100
AcDbText
 10
68.17475951956385
 20
5321.93106987333
 30
0.0
 40
6.0
  1
457
 50
90.0
  7
ARIAL
 72
     1
 11
65.17475951956385
 21
5328.923566462689
 31
0.0
100
AcDbText
 73
     2
  0
TEXT
  5
917D
330
2
100
AcDbEntity
  8
0
100
AcDbText
 10
534.9421144246337
 20
5310.66776793837
 30
0.0
 40
6.0
  1
4016
  7
ARIAL
 72
     1
 11
544.2654432104455
 21
5310.66776793837
 31
0.0
100
AcDbText
  0
TEXT
  5
917E
330
2
100
AcDbEntity
  8
0
100
AcDbText
 10
605.4421144246337
 20
5310.66776793837
 30
0.0
 40
6.0
  1
4616
  7
ARIAL
 72
     1
 11
614.7654432104455
 21
5310.66776793837
 31
0.0
100
AcDbText
  0
TEXT
  5
917F
330
2
100
AcDbEntity
  8
0
100
AcDbText
 10
681.3421144246333
 20
5310.66776793837
 30
0.0
 40
6.0
  1
5016
  7
ARIAL
 72
     1
 11
690.6654432104451
 21
5310.66776793837
 31
0.0
100
AcDbText
  0
TEXT
  5
9180
330
2
100
AcDbEntity
  8
0
100
AcDbText
 10
534.9421144246337
 20
5273.16776793837
 30
0.0
 40
6.0
  1
4018
  7
ARIAL
 72
     1
 11
544.2654432104455
 21
5273.16776793837
 31
0.0
100
AcDbText
  0
TEXT
  5
9181
330
2
100
AcDbEntity
  8
0
100
AcDbText
 10
605.4421144246337
 20
5273.16776793837
 30
0.0
 40
6.0
  1
4618
  7
ARIAL
 72
     1
 11
614.7654432104455
 21
5273.16776793837
 31
0.0
100
AcDbText
  0
TEXT
  5
9182
330
2
100
AcDbEntity
  8
0
100
AcDbText
 10
681.3421144246333
 20
5273.16776793837
 30
0.0
 40
6.0
  1
5018
  7
ARIAL
 72
     1
 11
690.6654432104451
 21
5273.16776793837
 31
0.0
100
AcDbText
  0
TEXT
  5
9183
330
2
100
AcDbEntity
  8
0
100
AcDbText
 10
80.17475951956385
 20
5279.082108583526
 30
0.0
 40
6.0
  1
14 3/4"
 50
90.0
  7
ARIAL
 72
     1
 11
77.17475951956385
 21
5292.221944872748
 31
0.0
100
AcDbText
 73
     2
  0
TEXT
  5
9184
330
2
100
AcDbEntity
  8
0
100
AcDbText
 10
56.17475951956294
 20
5283.876787983253
 30
0.0
 40
6.0
  1
1'-8"
 50
90.0
  7
ARIAL
 72
     1
 11
53.17475951956294
 21
5292.221944872748
 31
0.0
100
AcDbText
 73
     2
  0
TEXT
  5
9185
330
2
100
AcDbEntity
  8
0
100
AcDbText
 10
44.17475951956294
 20
5276.886337778615
 30
0.0
 40
6.0
  1
1'-7 1/2"
 50
90.0
  7
ARIAL
 72
     1
 11
41.17475951956294
 21
5292.221944872748
 31
0.0
100
AcDbText
 73
     2
  0
TEXT
  5
9186
330
2
100
AcDbEntity
  8
0
100
AcDbText
 10
68.17475951956294
 20
5285.22944828339
 30
0.0
 40
6.0
  1
508
 50
90.0
  7
ARIAL
 72
     1
 11
65.17475951956294
 21
5292.221944872748
 31
0.0
100
AcDbText
 73
     2
  0
TEXT
  5
9187
330
2
100
AcDbEntity
  8
0
100
AcDbText
 10
157.3421144246334
 20
4964.346474630072
 30
0.0
 40
6.0
  1
5618
  7
ARIAL
 72
     1
 11
166.6654432104451
 21
4964.346474630072
 31
0.0
100
AcDbText
  0
TEXT
  5
9188
330
2
100
AcDbEntity
  8
0
100
AcDbText
 10
245.8421144246334
 20
4964.346474630072
 30
0.0
 40
6.0
  1
6018
  7
ARIAL
 72
     1
 11
255.1654432104451
 21
4964.346474630072
 31
0.0
100
AcDbText
  0
TEXT
  5
9189
330
2
100
AcDbEntity
  8
0
100
AcDbText
 10
157.3421144246334
 20
5001.846474630072
 30
0.0
 40
6.0
  1
5616
  7
ARIAL
 72
     1
 11
166.6654432104451
 21
5001.846474630072
 31
0.0
100
AcDbText
  0
TEXT
  5
918A
330
2
100
AcDbEntity
  8
0
100
AcDbText
 10
245.8421144246334
 20
5001.846474630072
 30
0.0
 40
6.0
  1
6016
  7
ARIAL
 72
     1
 11
255.1654432104451
 21
5001.846474630072
 31
0.0
100
AcDbText
  0
LINE
  5
918B
330
2
100
AcDbEntity
  8
0
100
AcDbLine
 10
268.7654432104455
 20
5261.944179017897
 30
0.0
 11
268.7654432104455
 21
5244.194179017897
 31
0.0
  0
LWPOLYLINE
  5
918C
330
2
100
AcDbEntity
  8
0
100
AcDbPolyline
 90
        4
 70
     1
 43
0.0
 10
282.5154432104455
 20
5264.819179017897
 10
282.5154432104455
 20
5241.319179017897
 10
255.0154432104455
 20
5241.319179017897
 10
255.0154432104455
 20
5264.819179017897
  0
LWPOLYLINE
  5
918D
330
2
100
AcDbEntity
  8
0
100
AcDbPolyline
 90
        4
 70
     1
 43
0.0
 10
279.6404432104455
 20
5261.944179017897
 10
279.6404432104455
 20
5244.194179017897
 10
257.8904432104455
 20
5244.194179017897
 10
257.8904432104455
 20
5261.944179017897
  0
LWPOLYLINE
  5
918E
330
2
100
AcDbEntity
  8
0
100
AcDbPolyline
 90
        4
 70
     1
 43
0.0
 10
281.8204432104458
 20
5264.124179017897
 10
281.8204432104458
 20
5242.014179017897
 10
255.7104432104452
 20
5242.014179017897
 10
255.7104432104452
 20
5264.124179017897
  0
LINE
  5
918F
330
2
100
AcDbEntity
  8
0
100
AcDbLine
 10
317.2654432104455
 20
5261.944179017897
 30
0.0
 11
317.2654432104455
 21
5244.194179017897
 31
0.0
  0
LINE
  5
9190
330
2
100
AcDbEntity
  8
0
100
AcDbLine
 10
223.2654432104455
 20
5261.944179017897
 30
0.0
 11
223.2654432104455
 21
5244.194179017897
 31
0.0
  0
LWPOLYLINE
  5
9191
330
2
100
AcDbEntity
  8
0
100
AcDbPolyline
 90
        4
 70
     1
 43
0.0
 10
152.0154432104455
 20
5264.819179017897
 10
152.0154432104455
 20
5241.319179017897
 10
134.5154432104455
 20
5241.319179017897
 10
134.5154432104455
 20
5264.819179017897
  0
LWPOLYLINE
  5
9192
330
2
100
AcDbEntity
  8
0
100
AcDbPolyline
 90
        4
 70
     1
 43
0.0
 10
149.1404432104455
 20
5261.944179017897
 10
149.1404432104455
 20
5244.194179017897
 10
137.3904432104455
 20
5244.194179017897
 10
137.3904432104455
 20
5261.944179017897
  0
LWPOLYLINE
  5
9193
330
2
100
AcDbEntity
  8
0
100
AcDbPolyline
 90
        4
 70
     1
 43
0.0
 10
151.3204432104458
 20
5264.124179017897
 10
151.3204432104458
 20
5242.014179017897
 10
135.2104432104452
 20
5242.014179017897
 10
135.2104432104452
 20
5264.124179017897
  0
LINE
  5
9194
330
2
100
AcDbEntity
  8
0
100
AcDbLine
 10
143.2654432104455
 20
5261.944179017897
 30
0.0
 11
143.2654432104455
 21
5244.194179017897
 31
0.0
  0
LWPOLYLINE
  5
9195
330
2
100
AcDbEntity
  8
0
100
AcDbPolyline
 90
        4
 70
     1
 43
0.0
 10
235.0154432104455
 20
5264.819179017897
 10
235.0154432104455
 20
5241.319179017897
 10
211.5154432104455
 20
5241.319179017897
 10
211.5154432104455
 20
5264.819179017897
  0
LWPOLYLINE
  5
9196
330
2
100
AcDbEntity
  8
0
100
AcDbPolyline
 90
        4
 70
     1
 43
0.0
 10
232.1404432104455
 20
5261.944179017897
 10
232.1404432104455
 20
5244.194179017897
 10
214.3904432104455
 20
5244.194179017897
 10
214.3904432104455
 20
5261.944179017897
  0
LWPOLYLINE
  5
9197
330
2
100
AcDbEntity
  8
0
100
AcDbPolyline
 90
        4
 70
     1
 43
0.0
 10
234.3204432104458
 20
5264.124179017897
 10
234.3204432104458
 20
5242.014179017897
 10
212.2104432104452
 20
5242.014179017897
 10
212.2104432104452
 20
5264.124179017897
  0
LWPOLYLINE
  5
9198
330
2
100
AcDbEntity
  8
0
100
AcDbPolyline
 90
        4
 70
     1
 43
0.0
 10
332.0154432104455
 20
5264.819179017897
 10
332.0154432104455
 20
5241.319179017897
 10
302.5154432104455
 20
5241.319179017897
 10
302.5154432104455
 20
5264.819179017897
  0
LWPOLYLINE
  5
9199
330
2
100
AcDbEntity
  8
0
100
AcDbPolyline
 90
        4
 70
     1
 43
0.0
 10
329.1404432104455
 20
5261.944179017897
 10
329.1404432104455
 20
5244.194179017897
 10
305.3904432104455
 20
5244.194179017897
 10
305.3904432104455
 20
5261.944179017897
  0
LWPOLYLINE
  5
919A
330
2
100
AcDbEntity
  8
0
100
AcDbPolyline
 90
        4
 70
     1
 43
0.0
 10
331.3204432104458
 20
5264.124179017897
 10
331.3204432104458
 20
5242.014179017897
 10
303.2104432104452
 20
5242.014179017897
 10
303.2104432104452
 20
5264.124179017897
  0
TEXT
  5
919B
330
2
100
AcDbEntity
  8
0
100
AcDbText
 10
133.9421144246338
 20
5130.66776793837
 30
0.0
 40
6.0
  1
1630
  7
ARIAL
 72
     1
 11
143.2654432104455
 21
5130.66776793837
 31
0.0
100
AcDbText
  0
TEXT
  5
919C
330
2
100
AcDbEntity
  8
0
100
AcDbText
 10
213.9421144246338
 20
5130.66776793837
 30
0.0
 40
6.0
  1
2030
  7
ARIAL
 72
     1
 11
223.2654432104455
 21
5130.66776793837
 31
0.0
100
AcDbText
  0
TEXT
  5
919D
330
2
100
AcDbEntity
  8
0
100
AcDbText
 10
259.4421144246338
 20
5130.66776793837
 30
0.0
 40
6.0
  1
2430
  7
ARIAL
 72
     1
 11
268.7654432104455
 21
5130.66776793837
 31
0.0
100
AcDbText
  0
TEXT
  5
919E
330
2
100
AcDbEntity
  8
0
100
AcDbText
 10
307.9421144246338
 20
5130.66776793837
 30
0.0
 40
6.0
  1
2630
  7
ARIAL
 72
     1
 11
317.2654432104455
 21
5130.66776793837
 31
0.0
100
AcDbText
  0
TEXT
  5
919F
330
2
100
AcDbEntity
  8
0
100
AcDbText
 10
133.9421144246338
 20
5184.16776793837
 30
0.0
 40
6.0
  1
1626
  7
ARIAL
 72
     1
 11
143.2654432104455
 21
5184.16776793837
 31
0.0
100
AcDbText
  0
TEXT
  5
91A0
330
2
100
AcDbEntity
  8
0
100
AcDbText
 10
213.9421144246338
 20
5184.16776793837
 30
0.0
 40
6.0
  1
2026
  7
ARIAL
 72
     1
 11
223.2654432104455
 21
5184.16776793837
 31
0.0
100
AcDbText
  0
LINE
  5
91A1
330
2
100
AcDbEntity
  8
0
100
AcDbLine
 10
137.3904432104455
 20
5253.069179017897
 30
0.0
 11
149.1404432104455
 21
5253.069179017897
 31
0.0
  0
TEXT
  5
91A2
330
2
100
AcDbEntity
  8
0
100
AcDbText
 10
133.9421144246338
 20
5231.66776793837
 30
0.0
 40
6.0
  1
1620
  7
ARIAL
 72
     1
 11
143.2654432104455
 21
5231.66776793837
 31
0.0
100
AcDbText
  0
LINE
  5
91A3
330
2
100
AcDbEntity
  8
0
100
AcDbLine
 10
135.2104432104461
 20
5242.014179017897
 30
0.0
 11
134.5154432104455
 21
5241.319179017897
 31
0.0
  0
LINE
  5
91A4
330
2
100
AcDbEntity
  8
0
100
AcDbLine
 10
234.3204432104449
 20
5242.014179017897
 30
0.0
 11
235.0154432104455
 21
5241.319179017897
 31
0.0
  0
LINE
  5
91A5
330
2
100
AcDbEntity
  8
0
100
AcDbLine
 10
212.2104432104461
 20
5242.014179017897
 30
0.0
 11
211.5154432104455
 21
5241.319179017897
 31
0.0
  0
LINE
  5
91A6
330
2
100
AcDbEntity
  8
0
100
AcDbLine
 10
151.3204432104449
 20
5242.014179017897
 30
0.0
 11
152.0154432104455
 21
5241.319179017897
 31
0.0
  0
LINE
  5
91A7
330
2
100
AcDbEntity
  8
0
100
AcDbLine
 10
214.3904432104455
 20
5253.069179017897
 30
0.0
 11
232.1404432104455
 21
5253.069179017897
 31
0.0
  0
TEXT
  5
91A8
330
2
100
AcDbEntity
  8
0
100
AcDbText
 10
213.9421144246338
 20
5231.66776793837
 30
0.0
 40
6.0
  1
2020
  7
ARIAL
 72
     1
 11
223.2654432104455
 21
5231.66776793837
 31
0.0
100
AcDbText
  0
TEXT
  5
91A9
330
2
100
AcDbEntity
  8
0
100
AcDbText
 10
259.4421144246338
 20
5184.16776793837
 30
0.0
 40
6.0
  1
2426
  7
ARIAL
 72
     1
 11
268.7654432104455
 21
5184.16776793837
 31
0.0
100
AcDbText
  0
TEXT
  5
91AA
330
2
100
AcDbEntity
  8
0
100
AcDbText
 10
307.9421144246338
 20
5184.16776793837
 30
0.0
 40
6.0
  1
2626
  7
ARIAL
 72
     1
 11
317.2654432104455
 21
5184.16776793837
 31
0.0
100
AcDbText
  0
LINE
  5
91AB
330
2
100
AcDbEntity
  8
0
100
AcDbLine
 10
257.8904432104455
 20
5253.069179017897
 30
0.0
 11
279.6404432104455
 21
5253.069179017897
 31
0.0
  0
TEXT
  5
91AC
330
2
100
AcDbEntity
  8
0
100
AcDbText
 10
259.4421144246338
 20
5231.66776793837
 30
0.0
 40
6.0
  1
2420
  7
ARIAL
 72
     1
 11
268.7654432104455
 21
5231.66776793837
 31
0.0
100
AcDbText
  0
LINE
  5
91AD
330
2
100
AcDbEntity
  8
0
100
AcDbLine
 10
255.7104432104461
 20
5242.014179017897
 30
0.0
 11
255.0154432104455
 21
5241.319179017897
 31
0.0
  0
LINE
  5
91AE
330
2
100
AcDbEntity
  8
0
100
AcDbLine
 10
281.8204432104449
 20
5242.014179017897
 30
0.0
 11
282.5154432104455
 21
5241.319179017897
 31
0.0
  0
LINE
  5
91AF
330
2
100
AcDbEntity
  8
0
100
AcDbLine
 10
331.3204432104449
 20
5242.014179017897
 30
0.0
 11
332.0154432104455
 21
5241.319179017897
 31
0.0
  0
LINE
  5
91B0
330
2
100
AcDbEntity
  8
0
100
AcDbLine
 10
303.2104432104461
 20
5242.014179017897
 30
0.0
 11
302.5154432104455
 21
5241.319179017897
 31
0.0
  0
LINE
  5
91B1
330
2
100
AcDbEntity
  8
0
100
AcDbLine
 10
305.3904432104455
 20
5253.069179017897
 30
0.0
 11
329.1404432104455
 21
5253.069179017897
 31
0.0
  0
TEXT
  5
91B2
330
2
100
AcDbEntity
  8
0
100
AcDbText
 10
307.9421144246338
 20
5231.66776793837
 30
0.0
 40
6.0
  1
2620
  7
ARIAL
 72
     1
 11
317.2654432104455
 21
5231.66776793837
 31
0.0
100
AcDbText
  0
LINE
  5
91B3
330
2
100
AcDbEntity
  8
0
100
AcDbLine
 10
134.5154432104455
 20
5264.819179017897
 30
0.0
 11
135.2104432104452
 21
5264.124179017896
 31
0.0
  0
LINE
  5
91B4
330
2
100
AcDbEntity
  8
0
100
AcDbLine
 10
234.3204432104449
 20
5264.124179017896
 30
0.0
 11
235.0154432104455
 21
5264.819179017897
 31
0.0
  0
LINE
  5
91B5
330
2
100
AcDbEntity
  8
0
100
AcDbLine
 10
211.5154432104455
 20
5264.819179017897
 30
0.0
 11
212.2104432104452
 21
5264.124179017896
 31
0.0
  0
LINE
  5
91B6
330
2
100
AcDbEntity
  8
0
100
AcDbLine
 10
151.3204432104449
 20
5264.124179017896
 30
0.0
 11
152.0154432104455
 21
5264.819179017897
 31
0.0
  0
LINE
  5
91B7
330
2
100
AcDbEntity
  8
0
100
AcDbLine
 10
281.8204432104449
 20
5264.124179017896
 30
0.0
 11
282.5154432104455
 21
5264.819179017897
 31
0.0
  0
LINE
  5
91B8
330
2
100
AcDbEntity
  8
0
100
AcDbLine
 10
255.0154432104455
 20
5264.819179017897
 30
0.0
 11
255.7104432104452
 21
5264.124179017896
 31
0.0
  0
LINE
  5
91B9
330
2
100
AcDbEntity
  8
0
100
AcDbLine
 10
331.3204432104449
 20
5264.124179017896
 30
0.0
 11
332.0154432104455
 21
5264.819179017897
 31
0.0
  0
LINE
  5
91BA
330
2
100
AcDbEntity
  8
0
100
AcDbLine
 10
302.5154432104455
 20
5264.819179017897
 30
0.0
 11
303.2104432104452
 21
5264.124179017896
 31
0.0
  0
LINE
  5
91BB
330
2
100
AcDbEntity
  8
0
100
AcDbLine
 10
416.307043210445
 20
5261.944179017897
 30
0.0
 11
416.307043210445
 21
5244.194179017897
 31
0.0
  0
LINE
  5
91BC
330
2
100
AcDbEntity
  8
0
100
AcDbLine
 10
426.223843210445
 20
5261.944179017897
 30
0.0
 11
426.223843210445
 21
5244.194179017897
 31
0.0
  0
LINE
  5
91BD
330
2
100
AcDbEntity
  8
0
100
AcDbLine
 10
372.0571432104452
 20
5261.944179017897
 30
0.0
 11
372.0571432104452
 21
5244.194179017897
 31
0.0
  0
LINE
  5
91BE
330
2
100
AcDbEntity
  8
0
100
AcDbLine
 10
363.4737432104457
 20
5261.944179017897
 30
0.0
 11
363.4737432104457
 21
5244.194179017897
 31
0.0
  0
LWPOLYLINE
  5
91BF
330
2
100
AcDbEntity
  8
0
100
AcDbPolyline
 90
        4
 70
     1
 43
0.0
 10
383.5154432104455
 20
5264.819179017897
 10
383.5154432104455
 20
5241.319179017897
 10
352.0154432104455
 20
5241.319179017897
 10
352.0154432104455
 20
5264.819179017897
  0
LWPOLYLINE
  5
91C0
330
2
100
AcDbEntity
  8
0
100
AcDbPolyline
 90
        4
 70
     1
 43
0.0
 10
380.6404432104455
 20
5261.944179017897
 10
380.6404432104455
 20
5244.194179017897
 10
354.8904432104455
 20
5244.194179017897
 10
354.8904432104455
 20
5261.944179017897
  0
LWPOLYLINE
  5
91C1
330
2
100
AcDbEntity
  8
0
100
AcDbPolyline
 90
        4
 70
     1
 43
0.0
 10
382.8204432104458
 20
5264.124179017897
 10
382.8204432104458
 20
5242.014179017897
 10
352.7104432104452
 20
5242.014179017897
 10
352.7104432104452
 20
5264.124179017897
  0
LWPOLYLINE
  5
91C2
330
2
100
AcDbEntity
  8
0
100
AcDbPolyline
 90
        4
 70
     1
 43
0.0
 10
439.0154432104455
 20
5264.819179017897
 10
439.0154432104455
 20
5241.319179017897
 10
403.5154432104455
 20
5241.319179017897
 10
403.5154432104455
 20
5264.819179017897
  0
LWPOLYLINE
  5
91C3
330
2
100
AcDbEntity
  8
0
100
AcDbPolyline
 90
        4
 70
     1
 43
0.0
 10
436.1404432104455
 20
5261.944179017897
 10
436.1404432104455
 20
5244.194179017897
 10
406.3904432104455
 20
5244.194179017897
 10
406.3904432104455
 20
5261.944179017897
  0
LWPOLYLINE
  5
91C4
330
2
100
AcDbEntity
  8
0
100
AcDbPolyline
 90
        4
 70
     1
 43
0.0
 10
438.3204432104458
 20
5264.124179017897
 10
438.3204432104458
 20
5242.014179017897
 10
404.2104432104452
 20
5242.014179017897
 10
404.2104432104452
 20
5264.124179017897
  0
TEXT
  5
91C5
330
2
100
AcDbEntity
  8
0
100
AcDbText
 10
358.4421144246338
 20
5130.66776793837
 30
0.0
 40
6.0
  1
2830
  7
ARIAL
 72
     1
 11
367.7654432104455
 21
5130.66776793837
 31
0.0
100
AcDbText
  0
TEXT
  5
91C6
330
2
100
AcDbEntity
  8
0
100
AcDbText
 10
411.9421144246338
 20
5130.66776793837
 30
0.0
 40
6.0
  1
3030
  7
ARIAL
 72
     1
 11
421.2654432104455
 21
5130.66776793837
 31
0.0
100
AcDbText
  0
TEXT
  5
91C7
330
2
100
AcDbEntity
  8
0
100
AcDbText
 10
358.4421144246338
 20
5184.16776793837
 30
0.0
 40
6.0
  1
2826
  7
ARIAL
 72
     1
 11
367.7654432104455
 21
5184.16776793837
 31
0.0
100
AcDbText
  0
TEXT
  5
91C8
330
2
100
AcDbEntity
  8
0
100
AcDbText
 10
411.9421144246338
 20
5184.16776793837
 30
0.0
 40
6.0
  1
3026
  7
ARIAL
 72
     1
 11
421.2654432104455
 21
5184.16776793837
 31
0.0
100
AcDbText
  0
LINE
  5
91C9
330
2
100
AcDbEntity
  8
0
100
AcDbLine
 10
382.8204432104449
 20
5242.014179017897
 30
0.0
 11
383.5154432104455
 21
5241.319179017897
 31
0.0
  0
LINE
  5
91CA
330
2
100
AcDbEntity
  8
0
100
AcDbLine
 10
352.7104432104461
 20
5242.014179017897
 30
0.0
 11
352.0154432104455
 21
5241.319179017897
 31
0.0
  0
LINE
  5
91CB
330
2
100
AcDbEntity
  8
0
100
AcDbLine
 10
354.8904432104455
 20
5253.069179017897
 30
0.0
 11
380.6404432104455
 21
5253.069179017897
 31
0.0
  0
TEXT
  5
91CC
330
2
100
AcDbEntity
  8
0
100
AcDbText
 10
358.4421144246338
 20
5231.66776793837
 30
0.0
 40
6.0
  1
2820
  7
ARIAL
 72
     1
 11
367.7654432104455
 21
5231.66776793837
 31
0.0
100
AcDbText
  0
LINE
  5
91CD
330
2
100
AcDbEntity
  8
0
100
AcDbLine
 10
438.3204432104449
 20
5242.014179017897
 30
0.0
 11
439.0154432104455
 21
5241.319179017897
 31
0.0
  0
TEXT
  5
91CE
330
2
100
AcDbEntity
  8
0
100
AcDbText
 10
411.9421144246338
 20
5231.66776793837
 30
0.0
 40
6.0
  1
3020
  7
ARIAL
 72
     1
 11
421.2654432104455
 21
5231.66776793837
 31
0.0
100
AcDbText
  0
LINE
  5
91CF
330
2
100
AcDbEntity
  8
0
100
AcDbLine
 10
404.2104432104461
 20
5242.014179017897
 30
0.0
 11
403.5154432104455
 21
5241.319179017897
 31
0.0
  0
LINE
  5
91D0
330
2
100
AcDbEntity
  8
0
100
AcDbLine
 10
406.3904432104455
 20
5253.069179017897
 30
0.0
 11
436.1404432104455
 21
5253.069179017897
 31
0.0
  0
LINE
  5
91D1
330
2
100
AcDbEntity
  8
0
100
AcDbLine
 10
382.8204432104449
 20
5264.124179017896
 30
0.0
 11
383.5154432104455
 21
5264.819179017897
 31
0.0
  0
LINE
  5
91D2
330
2
100
AcDbEntity
  8
0
100
AcDbLine
 10
352.0154432104455
 20
5264.819179017897
 30
0.0
 11
352.7104432104452
 21
5264.124179017896
 31
0.0
  0
LINE
  5
91D3
330
2
100
AcDbEntity
  8
0
100
AcDbLine
 10
438.3204432104449
 20
5264.124179017896
 30
0.0
 11
439.0154432104455
 21
5264.819179017897
 31
0.0
  0
LINE
  5
91D4
330
2
100
AcDbEntity
  8
0
100
AcDbLine
 10
403.5154432104455
 20
5264.819179017897
 30
0.0
 11
404.2104432104452
 21
5264.124179017896
 31
0.0
  0
LWPOLYLINE
  5
91D5
330
2
100
AcDbEntity
  8
0
100
AcDbPolyline
 90
        4
 70
     1
 43
0.0
 10
191.5154432104455
 20
5264.819179017897
 10
191.5154432104455
 20
5241.319179017897
 10
172.0154432104455
 20
5241.319179017897
 10
172.0154432104455
 20
5264.819179017897
  0
LWPOLYLINE
  5
91D6
330
2
100
AcDbEntity
  8
0
100
AcDbPolyline
 90
        4
 70
     1
 43
0.0
 10
188.6404432104455
 20
5261.944179017897
 10
188.6404432104455
 20
5244.194179017897
 10
174.8904432104455
 20
5244.194179017897
 10
174.8904432104455
 20
5261.944179017897
  0
LWPOLYLINE
  5
91D7
330
2
100
AcDbEntity
  8
0
100
AcDbPolyline
 90
        4
 70
     1
 43
0.0
 10
190.8204432104458
 20
5264.124179017897
 10
190.8204432104458
 20
5242.014179017897
 10
172.7104432104452
 20
5242.014179017897
 10
172.7104432104452
 20
5264.124179017897
  0
LINE
  5
91D8
330
2
100
AcDbEntity
  8
0
100
AcDbLine
 10
181.7654432104455
 20
5261.944179017897
 30
0.0
 11
181.7654432104455
 21
5244.194179017897
 31
0.0
  0
TEXT
  5
91D9
330
2
100
AcDbEntity
  8
0
100
AcDbText
 10
172.4421144246338
 20
5130.66776793837
 30
0.0
 40
6.0
  1
1830
  7
ARIAL
 72
     1
 11
181.7654432104455
 21
5130.66776793837
 31
0.0
100
AcDbText
  0
TEXT
  5
91DA
330
2
100
AcDbEntity
  8
0
100
AcDbText
 10
172.4421144246338
 20
5184.16776793837
 30
0.0
 40
6.0
  1
1826
  7
ARIAL
 72
     1
 11
181.7654432104455
 21
5184.16776793837
 31
0.0
100
AcDbText
  0
LINE
  5
91DB
330
2
100
AcDbEntity
  8
0
100
AcDbLine
 10
174.8904432104455
 20
5253.069179017897
 30
0.0
 11
188.6404432104455
 21
5253.069179017897
 31
0.0
  0
TEXT
  5
91DC
330
2
100
AcDbEntity
  8
0
100
AcDbText
 10
172.4421144246338
 20
5231.66776793837
 30
0.0
 40
6.0
  1
1820
  7
ARIAL
 72
     1
 11
181.7654432104455
 21
5231.66776793837
 31
0.0
100
AcDbText
  0
LINE
  5
91DD
330
2
100
AcDbEntity
  8
0
100
AcDbLine
 10
172.7104432104461
 20
5242.014179017897
 30
0.0
 11
172.0154432104455
 21
5241.319179017897
 31
0.0
  0
LINE
  5
91DE
330
2
100
AcDbEntity
  8
0
100
AcDbLine
 10
190.8204432104449
 20
5242.014179017897
 30
0.0
 11
191.5154432104455
 21
5241.319179017897
 31
0.0
  0
LINE
  5
91DF
330
2
100
AcDbEntity
  8
0
100
AcDbLine
 10
172.0154432104455
 20
5264.819179017897
 30
0.0
 11
172.7104432104452
 21
5264.124179017896
 31
0.0
  0
LINE
  5
91E0
330
2
100
AcDbEntity
  8
0
100
AcDbLine
 10
190.8204432104449
 20
5264.124179017896
 30
0.0
 11
191.5154432104455
 21
5264.819179017897
 31
0.0
  0
LINE
  5
91E1
330
2
100
AcDbEntity
  8
0
100
AcDbLine
 10
268.7654432104455
 20
5172.944179017897
 30
0.0
 11
268.7654432104455
 21
5143.194179017897
 31
0.0
  0
LWPOLYLINE
  5
91E2
330
2
100
AcDbEntity
  8
0
100
AcDbPolyline
 90
        4
 70
     1
 43
0.0
 10
282.5154432104455
 20
5175.819179017897
 10
282.5154432104455
 20
5140.319179017897
 10
255.0154432104455
 20
5140.319179017897
 10
255.0154432104455
 20
5175.819179017897
  0
LWPOLYLINE
  5
91E3
330
2
100
AcDbEntity
  8
0
100
AcDbPolyline
 90
        4
 70
     1
 43
0.0
 10
279.6404432104455
 20
5172.944179017897
 10
279.6404432104455
 20
5143.194179017897
 10
257.8904432104455
 20
5143.194179017897
 10
257.8904432104455
 20
5172.944179017897
  0
LWPOLYLINE
  5
91E4
330
2
100
AcDbEntity
  8
0
100
AcDbPolyline
 90
        4
 70
     1
 43
0.0
 10
281.8204432104458
 20
5175.124179017897
 10
281.8204432104458
 20
5141.014179017897
 10
255.7104432104452
 20
5141.014179017897
 10
255.7104432104452
 20
5175.124179017897
  0
LINE
  5
91E5
330
2
100
AcDbEntity
  8
0
100
AcDbLine
 10
317.2654432104455
 20
5172.944179017897
 30
0.0
 11
317.2654432104455
 21
5143.194179017897
 31
0.0
  0
LINE
  5
91E6
330
2
100
AcDbEntity
  8
0
100
AcDbLine
 10
223.2654432104455
 20
5172.944179017897
 30
0.0
 11
223.2654432104455
 21
5143.194179017897
 31
0.0
  0
LWPOLYLINE
  5
91E7
330
2
100
AcDbEntity
  8
0
100
AcDbPolyline
 90
        4
 70
     1
 43
0.0
 10
152.0154432104455
 20
5175.819179017897
 10
152.0154432104455
 20
5140.319179017897
 10
134.5154432104455
 20
5140.319179017897
 10
134.5154432104455
 20
5175.819179017897
  0
LWPOLYLINE
  5
91E8
330
2
100
AcDbEntity
  8
0
100
AcDbPolyline
 90
        4
 70
     1
 43
0.0
 10
149.1404432104455
 20
5172.944179017897
 10
149.1404432104455
 20
5143.194179017897
 10
137.3904432104455
 20
5143.194179017897
 10
137.3904432104455
 20
5172.944179017897
  0
LWPOLYLINE
  5
91E9
330
2
100
AcDbEntity
  8
0
100
AcDbPolyline
 90
        4
 70
     1
 43
0.0
 10
151.3204432104458
 20
5175.124179017897
 10
151.3204432104458
 20
5141.014179017897
 10
135.2104432104452
 20
5141.014179017897
 10
135.2104432104452
 20
5175.124179017897
  0
LINE
  5
91EA
330
2
100
AcDbEntity
  8
0
100
AcDbLine
 10
143.2654432104455
 20
5172.944179017897
 30
0.0
 11
143.2654432104455
 21
5143.194179017897
 31
0.0
  0
LWPOLYLINE
  5
91EB
330
2
100
AcDbEntity
  8
0
100
AcDbPolyline
 90
        4
 70
     1
 43
0.0
 10
235.0154432104455
 20
5175.819179017897
 10
235.0154432104455
 20
5140.319179017897
 10
211.5154432104455
 20
5140.319179017897
 10
211.5154432104455
 20
5175.819179017897
  0
LWPOLYLINE
  5
91EC
330
2
100
AcDbEntity
  8
0
100
AcDbPolyline
 90
        4
 70
     1
 43
0.0
 10
232.1404432104455
 20
5172.944179017897
 10
232.1404432104455
 20
5143.194179017897
 10
214.3904432104455
 20
5143.194179017897
 10
214.3904432104455
 20
5172.944179017897
  0
LWPOLYLINE
  5
91ED
330
2
100
AcDbEntity
  8
0
100
AcDbPolyline
 90
        4
 70
     1
 43
0.0
 10
234.3204432104458
 20
5175.124179017897
 10
234.3204432104458
 20
5141.014179017897
 10
212.2104432104452
 20
5141.014179017897
 10
212.2104432104452
 20
5175.124179017897
  0
LWPOLYLINE
  5
91EE
330
2
100
AcDbEntity
  8
0
100
AcDbPolyline
 90
        4
 70
     1
 43
0.0
 10
332.0154432104455
 20
5175.819179017897
 10
332.0154432104455
 20
5140.319179017897
 10
302.5154432104455
 20
5140.319179017897
 10
302.5154432104455
 20
5175.819179017897
  0
LWPOLYLINE
  5
91EF
330
2
100
AcDbEntity
  8
0
100
AcDbPolyline
 90
        4
 70
     1
 43
0.0
 10
329.1404432104455
 20
5172.944179017897
 10
329.1404432104455
 20
5143.194179017897
 10
305.3904432104455
 20
5143.194179017897
 10
305.3904432104455
 20
5172.944179017897
  0
LWPOLYLINE
  5
91F0
330
2
100
AcDbEntity
  8
0
100
AcDbPolyline
 90
        4
 70
     1
 43
0.0
 10
331.3204432104458
 20
5175.124179017897
 10
331.3204432104458
 20
5141.014179017897
 10
303.2104432104452
 20
5141.014179017897
 10
303.2104432104452
 20
5175.124179017897
  0
LINE
  5
91F1
330
2
100
AcDbEntity
  8
0
100
AcDbLine
 10
137.3904432104455
 20
5163.027579017897
 30
0.0
 11
149.1404432104455
 21
5163.027579017897
 31
0.0
  0
LINE
  5
91F2
330
2
100
AcDbEntity
  8
0
100
AcDbLine
 10
135.2104432104461
 20
5141.014179017897
 30
0.0
 11
134.5154432104455
 21
5140.319179017897
 31
0.0
  0
LINE
  5
91F3
330
2
100
AcDbEntity
  8
0
100
AcDbLine
 10
234.3204432104449
 20
5141.014179017897
 30
0.0
 11
235.0154432104455
 21
5140.319179017897
 31
0.0
  0
LINE
  5
91F4
330
2
100
AcDbEntity
  8
0
100
AcDbLine
 10
212.2104432104461
 20
5141.014179017897
 30
0.0
 11
211.5154432104455
 21
5140.319179017897
 31
0.0
  0
LINE
  5
91F5
330
2
100
AcDbEntity
  8
0
100
AcDbLine
 10
151.3204432104449
 20
5141.014179017897
 30
0.0
 11
152.0154432104455
 21
5140.319179017897
 31
0.0
  0
LINE
  5
91F6
330
2
100
AcDbEntity
  8
0
100
AcDbLine
 10
214.3904432104455
 20
5163.027579017897
 30
0.0
 11
232.1404432104455
 21
5163.027579017897
 31
0.0
  0
LINE
  5
91F7
330
2
100
AcDbEntity
  8
0
100
AcDbLine
 10
257.8904432104455
 20
5163.027579017897
 30
0.0
 11
279.6404432104455
 21
5163.027579017897
 31
0.0
  0
LINE
  5
91F8
330
2
100
AcDbEntity
  8
0
100
AcDbLine
 10
255.7104432104461
 20
5141.014179017897
 30
0.0
 11
255.0154432104455
 21
5140.319179017897
 31
0.0
  0
LINE
  5
91F9
330
2
100
AcDbEntity
  8
0
100
AcDbLine
 10
281.8204432104449
 20
5141.014179017897
 30
0.0
 11
282.5154432104455
 21
5140.319179017897
 31
0.0
  0
LINE
  5
91FA
330
2
100
AcDbEntity
  8
0
100
AcDbLine
 10
331.3204432104449
 20
5141.014179017897
 30
0.0
 11
332.0154432104455
 21
5140.319179017897
 31
0.0
  0
LINE
  5
91FB
330
2
100
AcDbEntity
  8
0
100
AcDbLine
 10
303.2104432104461
 20
5141.014179017897
 30
0.0
 11
302.5154432104455
 21
5140.319179017897
 31
0.0
  0
LINE
  5
91FC
330
2
100
AcDbEntity
  8
0
100
AcDbLine
 10
305.3904432104455
 20
5163.027579017897
 30
0.0
 11
329.1404432104455
 21
5163.027579017897
 31
0.0
  0
LINE
  5
91FD
330
2
100
AcDbEntity
  8
0
100
AcDbLine
 10
134.5154432104455
 20
5175.819179017897
 30
0.0
 11
135.2104432104452
 21
5175.124179017896
 31
0.0
  0
LINE
  5
91FE
330
2
100
AcDbEntity
  8
0
100
AcDbLine
 10
234.3204432104449
 20
5175.124179017896
 30
0.0
 11
235.0154432104455
 21
5175.819179017897
 31
0.0
  0
LINE
  5
91FF
330
2
100
AcDbEntity
  8
0
100
AcDbLine
 10
211.5154432104455
 20
5175.819179017897
 30
0.0
 11
212.2104432104452
 21
5175.124179017896
 31
0.0
  0
LINE
  5
9200
330
2
100
AcDbEntity
  8
0
100
AcDbLine
 10
151.3204432104449
 20
5175.124179017896
 30
0.0
 11
152.0154432104455
 21
5175.819179017897
 31
0.0
  0
LINE
  5
9201
330
2
100
AcDbEntity
  8
0
100
AcDbLine
 10
281.8204432104449
 20
5175.124179017896
 30
0.0
 11
282.5154432104455
 21
5175.819179017897
 31
0.0
  0
LINE
  5
9202
330
2
100
AcDbEntity
  8
0
100
AcDbLine
 10
255.0154432104455
 20
5175.819179017897
 30
0.0
 11
255.7104432104452
 21
5175.124179017896
 31
0.0
  0
LINE
  5
9203
330
2
100
AcDbEntity
  8
0
100
AcDbLine
 10
331.3204432104449
 20
5175.124179017896
 30
0.0
 11
332.0154432104455
 21
5175.819179017897
 31
0.0
  0
LINE
  5
9204
330
2
100
AcDbEntity
  8
0
100
AcDbLine
 10
302.5154432104455
 20
5175.819179017897
 30
0.0
 11
303.2104432104452
 21
5175.124179017896
 31
0.0
  0
LINE
  5
9205
330
2
100
AcDbEntity
  8
0
100
AcDbLine
 10
416.307043210445
 20
5172.944179017897
 30
0.0
 11
416.307043210445
 21
5143.194179017897
 31
0.0
  0
LINE
  5
9206
330
2
100
AcDbEntity
  8
0
100
AcDbLine
 10
426.223843210445
 20
5172.944179017897
 30
0.0
 11
426.223843210445
 21
5143.194179017897
 31
0.0
  0
LINE
  5
9207
330
2
100
AcDbEntity
  8
0
100
AcDbLine
 10
372.0571432104452
 20
5172.944179017897
 30
0.0
 11
372.0571432104452
 21
5143.194179017897
 31
0.0
  0
LINE
  5
9208
330
2
100
AcDbEntity
  8
0
100
AcDbLine
 10
363.4737432104457
 20
5172.944179017897
 30
0.0
 11
363.4737432104457
 21
5143.194179017897
 31
0.0
  0
LWPOLYLINE
  5
9209
330
2
100
AcDbEntity
  8
0
100
AcDbPolyline
 90
        4
 70
     1
 43
0.0
 10
383.5154432104455
 20
5175.819179017897
 10
383.5154432104455
 20
5140.319179017897
 10
352.0154432104455
 20
5140.319179017897
 10
352.0154432104455
 20
5175.819179017897
  0
LWPOLYLINE
  5
920A
330
2
100
AcDbEntity
  8
0
100
AcDbPolyline
 90
        4
 70
     1
 43
0.0
 10
380.6404432104455
 20
5172.944179017897
 10
380.6404432104455
 20
5143.194179017897
 10
354.8904432104455
 20
5143.194179017897
 10
354.8904432104455
 20
5172.944179017897
  0
LWPOLYLINE
  5
920B
330
2
100
AcDbEntity
  8
0
100
AcDbPolyline
 90
        4
 70
     1
 43
0.0
 10
382.8204432104458
 20
5175.124179017897
 10
382.8204432104458
 20
5141.014179017897
 10
352.7104432104452
 20
5141.014179017897
 10
352.7104432104452
 20
5175.124179017897
  0
LWPOLYLINE
  5
920C
330
2
100
AcDbEntity
  8
0
100
AcDbPolyline
 90
        4
 70
     1
 43
0.0
 10
439.0154432104455
 20
5175.819179017897
 10
439.0154432104455
 20
5140.319179017897
 10
403.5154432104455
 20
5140.319179017897
 10
403.5154432104455
 20
5175.819179017897
  0
LWPOLYLINE
  5
920D
330
2
100
AcDbEntity
  8
0
100
AcDbPolyline
 90
        4
 70
     1
 43
0.0
 10
436.1404432104455
 20
5172.944179017897
 10
436.1404432104455
 20
5143.194179017897
 10
406.3904432104455
 20
5143.194179017897
 10
406.3904432104455
 20
5172.944179017897
  0
LWPOLYLINE
  5
920E
330
2
100
AcDbEntity
  8
0
100
AcDbPolyline
 90
        4
 70
     1
 43
0.0
 10
438.3204432104458
 20
5175.124179017897
 10
438.3204432104458
 20
5141.014179017897
 10
404.2104432104452
 20
5141.014179017897
 10
404.2104432104452
 20
5175.124179017897
  0
LINE
  5
920F
330
2
100
AcDbEntity
  8
0
100
AcDbLine
 10
382.8204432104449
 20
5141.014179017897
 30
0.0
 11
383.5154432104455
 21
5140.319179017897
 31
0.0
  0
LINE
  5
9210
330
2
100
AcDbEntity
  8
0
100
AcDbLine
 10
352.7104432104461
 20
5141.014179017897
 30
0.0
 11
352.0154432104455
 21
5140.319179017897
 31
0.0
  0
LINE
  5
9211
330
2
100
AcDbEntity
  8
0
100
AcDbLine
 10
354.8904432104455
 20
5163.027579017897
 30
0.0
 11
380.6404432104455
 21
5163.027579017897
 31
0.0
  0
LINE
  5
9212
330
2
100
AcDbEntity
  8
0
100
AcDbLine
 10
438.3204432104449
 20
5141.014179017897
 30
0.0
 11
439.0154432104455
 21
5140.319179017897
 31
0.0
  0
LINE
  5
9213
330
2
100
AcDbEntity
  8
0
100
AcDbLine
 10
404.2104432104461
 20
5141.014179017897
 30
0.0
 11
403.5154432104455
 21
5140.319179017897
 31
0.0
  0
LINE
  5
9214
330
2
100
AcDbEntity
  8
0
100
AcDbLine
 10
406.3904432104455
 20
5163.027579017897
 30
0.0
 11
436.1404432104455
 21
5163.027579017897
 31
0.0
  0
LINE
  5
9215
330
2
100
AcDbEntity
  8
0
100
AcDbLine
 10
382.8204432104449
 20
5175.124179017896
 30
0.0
 11
383.5154432104455
 21
5175.819179017897
 31
0.0
  0
LINE
  5
9216
330
2
100
AcDbEntity
  8
0
100
AcDbLine
 10
352.0154432104455
 20
5175.819179017897
 30
0.0
 11
352.7104432104452
 21
5175.124179017896
 31
0.0
  0
LINE
  5
9217
330
2
100
AcDbEntity
  8
0
100
AcDbLine
 10
438.3204432104449
 20
5175.124179017896
 30
0.0
 11
439.0154432104455
 21
5175.819179017897
 31
0.0
  0
LINE
  5
9218
330
2
100
AcDbEntity
  8
0
100
AcDbLine
 10
403.5154432104455
 20
5175.819179017897
 30
0.0
 11
404.2104432104452
 21
5175.124179017896
 31
0.0
  0
LWPOLYLINE
  5
9219
330
2
100
AcDbEntity
  8
0
100
AcDbPolyline
 90
        4
 70
     1
 43
0.0
 10
191.5154432104455
 20
5175.819179017897
 10
191.5154432104455
 20
5140.319179017897
 10
172.0154432104455
 20
5140.319179017897
 10
172.0154432104455
 20
5175.819179017897
  0
LWPOLYLINE
  5
921A
330
2
100
AcDbEntity
  8
0
100
AcDbPolyline
 90
        4
 70
     1
 43
0.0
 10
188.6404432104455
 20
5172.944179017897
 10
188.6404432104455
 20
5143.194179017897
 10
174.8904432104455
 20
5143.194179017897
 10
174.8904432104455
 20
5172.944179017897
  0
LWPOLYLINE
  5
921B
330
2
100
AcDbEntity
  8
0
100
AcDbPolyline
 90
        4
 70
     1
 43
0.0
 10
190.8204432104458
 20
5175.124179017897
 10
190.8204432104458
 20
5141.014179017897
 10
172.7104432104452
 20
5141.014179017897
 10
172.7104432104452
 20
5175.124179017897
  0
LINE
  5
921C
330
2
100
AcDbEntity
  8
0
100
AcDbLine
 10
181.7654432104455
 20
5172.944179017897
 30
0.0
 11
181.7654432104455
 21
5143.194179017897
 31
0.0
  0
LINE
  5
921D
330
2
100
AcDbEntity
  8
0
100
AcDbLine
 10
174.8904432104455
 20
5163.027579017897
 30
0.0
 11
188.6404432104455
 21
5163.027579017897
 31
0.0
  0
LINE
  5
921E
330
2
100
AcDbEntity
  8
0
100
AcDbLine
 10
172.7104432104461
 20
5141.014179017897
 30
0.0
 11
172.0154432104455
 21
5140.319179017897
 31
0.0
  0
LINE
  5
921F
330
2
100
AcDbEntity
  8
0
100
AcDbLine
 10
190.8204432104449
 20
5141.014179017897
 30
0.0
 11
191.5154432104455
 21
5140.319179017897
 31
0.0
  0
LINE
  5
9220
330
2
100
AcDbEntity
  8
0
100
AcDbLine
 10
172.0154432104455
 20
5175.819179017897
 30
0.0
 11
172.7104432104452
 21
5175.124179017896
 31
0.0
  0
LINE
  5
9221
330
2
100
AcDbEntity
  8
0
100
AcDbLine
 10
190.8204432104449
 20
5175.124179017896
 30
0.0
 11
191.5154432104455
 21
5175.819179017897
 31
0.0
  0
LINE
  5
9222
330
2
100
AcDbEntity
  8
0
100
AcDbLine
 10
137.3904432104455
 20
5153.110779017896
 30
0.0
 11
149.1404432104455
 21
5153.110779017896
 31
0.0
  0
LINE
  5
9223
330
2
100
AcDbEntity
  8
0
100
AcDbLine
 10
214.3904432104455
 20
5153.110779017896
 30
0.0
 11
232.1404432104455
 21
5153.110779017896
 31
0.0
  0
LINE
  5
9224
330
2
100
AcDbEntity
  8
0
100
AcDbLine
 10
257.8904432104455
 20
5153.110779017896
 30
0.0
 11
279.6404432104455
 21
5153.110779017896
 31
0.0
  0
LINE
  5
9225
330
2
100
AcDbEntity
  8
0
100
AcDbLine
 10
305.3904432104455
 20
5153.110779017896
 30
0.0
 11
329.1404432104455
 21
5153.110779017896
 31
0.0
  0
LINE
  5
9226
330
2
100
AcDbEntity
  8
0
100
AcDbLine
 10
354.8904432104455
 20
5153.110779017896
 30
0.0
 11
380.6404432104455
 21
5153.110779017896
 31
0.0
  0
LINE
  5
9227
330
2
100
AcDbEntity
  8
0
100
AcDbLine
 10
406.3904432104455
 20
5153.110779017896
 30
0.0
 11
436.1404432104455
 21
5153.110779017896
 31
0.0
  0
LINE
  5
9228
330
2
100
AcDbEntity
  8
0
100
AcDbLine
 10
174.8904432104455
 20
5153.110779017896
 30
0.0
 11
188.6404432104455
 21
5153.110779017896
 31
0.0
  0
LINE
  5
9229
330
2
100
AcDbEntity
  8
0
100
AcDbLine
 10
470.8279432104455
 20
5261.944179017897
 30
0.0
 11
470.8279432104455
 21
5244.194179017897
 31
0.0
  0
LINE
  5
922A
330
2
100
AcDbEntity
  8
0
100
AcDbLine
 10
488.7029432104455
 20
5261.944179017897
 30
0.0
 11
488.7029432104455
 21
5244.194179017897
 31
0.0
  0
LWPOLYLINE
  5
922B
330
2
100
AcDbEntity
  8
0
100
AcDbPolyline
 90
        4
 70
     1
 43
0.0
 10
500.5154432104455
 20
5264.819179017897
 10
500.5154432104455
 20
5241.319179017897
 10
459.0154432104455
 20
5241.319179017897
 10
459.0154432104455
 20
5264.819179017897
  0
LWPOLYLINE
  5
922C
330
2
100
AcDbEntity
  8
0
100
AcDbPolyline
 90
        4
 70
     1
 43
0.0
 10
497.6404432104455
 20
5261.944179017897
 10
497.6404432104455
 20
5244.194179017897
 10
461.8904432104455
 20
5244.194179017897
 10
461.8904432104455
 20
5261.944179017897
  0
LWPOLYLINE
  5
922D
330
2
100
AcDbEntity
  8
0
100
AcDbPolyline
 90
        4
 70
     1
 43
0.0
 10
499.8204432104458
 20
5264.124179017897
 10
499.8204432104458
 20
5242.014179017897
 10
459.7104432104452
 20
5242.014179017897
 10
459.7104432104452
 20
5264.124179017897
  0
TEXT
  5
922E
330
2
100
AcDbEntity
  8
0
100
AcDbText
 10
470.4421144246338
 20
5130.66776793837
 30
0.0
 40
6.0
  1
3630
  7
ARIAL
 72
     1
 11
479.7654432104455
 21
5130.66776793837
 31
0.0
100
AcDbText
  0
TEXT
  5
922F
330
2
100
AcDbEntity
  8
0
100
AcDbText
 10
470.4421144246338
 20
5184.16776793837
 30
0.0
 40
6.0
  1
3626
  7
ARIAL
 72
     1
 11
479.7654432104455
 21
5184.16776793837
 31
0.0
100
AcDbText
  0
LINE
  5
9230
330
2
100
AcDbEntity
  8
0
100
AcDbLine
 10
499.8204432104449
 20
5242.014179017897
 30
0.0
 11
500.5154432104455
 21
5241.319179017897
 31
0.0
  0
TEXT
  5
9231
330
2
100
AcDbEntity
  8
0
100
AcDbText
 10
470.4421144246338
 20
5231.66776793837
 30
0.0
 40
6.0
  1
3620
  7
ARIAL
 72
     1
 11
479.7654432104455
 21
5231.66776793837
 31
0.0
100
AcDbText
  0
LINE
  5
9232
330
2
100
AcDbEntity
  8
0
100
AcDbLine
 10
459.7104432104461
 20
5242.014179017897
 30
0.0
 11
459.0154432104455
 21
5241.319179017897
 31
0.0
  0
LINE
  5
9233
330
2
100
AcDbEntity
  8
0
100
AcDbLine
 10
461.8904432104455
 20
5253.069179017897
 30
0.0
 11
497.6404432104455
 21
5253.069179017897
 31
0.0
  0
LINE
  5
9234
330
2
100
AcDbEntity
  8
0
100
AcDbLine
 10
499.8204432104449
 20
5264.124179017896
 30
0.0
 11
500.5154432104455
 21
5264.819179017897
 31
0.0
  0
LINE
  5
9235
330
2
100
AcDbEntity
  8
0
100
AcDbLine
 10
459.0154432104455
 20
5264.819179017897
 30
0.0
 11
459.7104432104452
 21
5264.124179017896
 31
0.0
  0
LINE
  5
9236
330
2
100
AcDbEntity
  8
0
100
AcDbLine
 10
470.8279432104455
 20
5172.944179017897
 30
0.0
 11
470.8279432104455
 21
5143.194179017897
 31
0.0
  0
LINE
  5
9237
330
2
100
AcDbEntity
  8
0
100
AcDbLine
 10
488.7029432104455
 20
5172.944179017897
 30
0.0
 11
488.7029432104455
 21
5143.194179017897
 31
0.0
  0
LWPOLYLINE
  5
9238
330
2
100
AcDbEntity
  8
0
100
AcDbPolyline
 90
        4
 70
     1
 43
0.0
 10
500.5154432104455
 20
5175.819179017897
 10
500.5154432104455
 20
5140.319179017897
 10
459.0154432104455
 20
5140.319179017897
 10
459.0154432104455
 20
5175.819179017897
  0
LWPOLYLINE
  5
9239
330
2
100
AcDbEntity
  8
0
100
AcDbPolyline
 90
        4
 70
     1
 43
0.0
 10
497.6404432104455
 20
5172.944179017897
 10
497.6404432104455
 20
5143.194179017897
 10
461.8904432104455
 20
5143.194179017897
 10
461.8904432104455
 20
5172.944179017897
  0
LWPOLYLINE
  5
923A
330
2
100
AcDbEntity
  8
0
100
AcDbPolyline
 90
        4
 70
     1
 43
0.0
 10
499.8204432104458
 20
5175.124179017897
 10
499.8204432104458
 20
5141.014179017897
 10
459.7104432104452
 20
5141.014179017897
 10
459.7104432104452
 20
5175.124179017897
  0
LINE
  5
923B
330
2
100
AcDbEntity
  8
0
100
AcDbLine
 10
499.8204432104449
 20
5141.014179017897
 30
0.0
 11
500.5154432104455
 21
5140.319179017897
 31
0.0
  0
LINE
  5
923C
330
2
100
AcDbEntity
  8
0
100
AcDbLine
 10
459.7104432104461
 20
5141.014179017897
 30
0.0
 11
459.0154432104455
 21
5140.319179017897
 31
0.0
  0
LINE
  5
923D
330
2
100
AcDbEntity
  8
0
100
AcDbLine
 10
461.8904432104455
 20
5163.027579017897
 30
0.0
 11
497.6404432104455
 21
5163.027579017897
 31
0.0
  0
LINE
  5
923E
330
2
100
AcDbEntity
  8
0
100
AcDbLine
 10
499.8204432104449
 20
5175.124179017896
 30
0.0
 11
500.5154432104455
 21
5175.819179017897
 31
0.0
  0
LINE
  5
923F
330
2
100
AcDbEntity
  8
0
100
AcDbLine
 10
459.0154432104455
 20
5175.819179017897
 30
0.0
 11
459.7104432104452
 21
5175.124179017896
 31
0.0
  0
LINE
  5
9240
330
2
100
AcDbEntity
  8
0
100
AcDbLine
 10
461.8904432104455
 20
5153.110779017896
 30
0.0
 11
497.6404432104455
 21
5153.110779017896
 31
0.0
  0
LINE
  5
9241
330
2
100
AcDbEntity
  8
0
100
AcDbLine
 10
479.7654432104455
 20
5261.944179017897
 30
0.0
 11
479.7654432104455
 21
5244.194179017897
 31
0.0
  0
LINE
  5
9242
330
2
100
AcDbEntity
  8
0
100
AcDbLine
 10
479.7654432104455
 20
5172.944179017897
 30
0.0
 11
479.7654432104455
 21
5143.194179017897
 31
0.0
  0
LINE
  5
9243
330
2
100
AcDbEntity
  8
0
100
AcDbLine
 10
149.1404432104455
 20
5244.194179017897
 30
0.0
 11
149.1404432104455
 21
5242.014179017897
 31
0.0
  0
LINE
  5
9244
330
2
100
AcDbEntity
  8
0
100
AcDbLine
 10
137.3904432104455
 20
5244.194179017897
 30
0.0
 11
137.3904432104455
 21
5242.014179017897
 31
0.0
  0
LINE
  5
9245
330
2
100
AcDbEntity
  8
0
100
AcDbLine
 10
137.3904432104455
 20
5261.944179017897
 30
0.0
 11
137.3904432104455
 21
5264.124179017897
 31
0.0
  0
LINE
  5
9246
330
2
100
AcDbEntity
  8
0
100
AcDbLine
 10
149.1404432104455
 20
5261.944179017897
 30
0.0
 11
149.1404432104455
 21
5264.124179017897
 31
0.0
  0
LINE
  5
9247
330
2
100
AcDbEntity
  8
0
100
AcDbLine
 10
188.6404432104455
 20
5244.194179017897
 30
0.0
 11
188.6404432104455
 21
5242.014179017897
 31
0.0
  0
LINE
  5
9248
330
2
100
AcDbEntity
  8
0
100
AcDbLine
 10
174.8904432104455
 20
5244.194179017897
 30
0.0
 11
174.8904432104455
 21
5242.014179017897
 31
0.0
  0
LINE
  5
9249
330
2
100
AcDbEntity
  8
0
100
AcDbLine
 10
174.8904432104455
 20
5261.944179017897
 30
0.0
 11
174.8904432104455
 21
5264.124179017897
 31
0.0
  0
LINE
  5
924A
330
2
100
AcDbEntity
  8
0
100
AcDbLine
 10
188.6404432104455
 20
5261.944179017897
 30
0.0
 11
188.6404432104455
 21
5264.124179017897
 31
0.0
  0
LINE
  5
924B
330
2
100
AcDbEntity
  8
0
100
AcDbLine
 10
232.1404432104455
 20
5261.944179017897
 30
0.0
 11
232.1404432104455
 21
5264.124179017897
 31
0.0
  0
LINE
  5
924C
330
2
100
AcDbEntity
  8
0
100
AcDbLine
 10
214.3904432104455
 20
5261.944179017897
 30
0.0
 11
214.3904432104455
 21
5264.124179017897
 31
0.0
  0
LINE
  5
924D
330
2
100
AcDbEntity
  8
0
100
AcDbLine
 10
214.3904432104455
 20
5244.194179017897
 30
0.0
 11
214.3904432104455
 21
5242.014179017897
 31
0.0
  0
LINE
  5
924E
330
2
100
AcDbEntity
  8
0
100
AcDbLine
 10
232.1404432104455
 20
5244.194179017897
 30
0.0
 11
232.1404432104455
 21
5242.014179017897
 31
0.0
  0
LINE
  5
924F
330
2
100
AcDbEntity
  8
0
100
AcDbLine
 10
279.6404432104455
 20
5261.944179017897
 30
0.0
 11
279.6404432104455
 21
5264.124179017897
 31
0.0
  0
LINE
  5
9250
330
2
100
AcDbEntity
  8
0
100
AcDbLine
 10
257.8904432104455
 20
5261.944179017897
 30
0.0
 11
257.8904432104455
 21
5264.124179017897
 31
0.0
  0
LINE
  5
9251
330
2
100
AcDbEntity
  8
0
100
AcDbLine
 10
257.8904432104455
 20
5244.194179017897
 30
0.0
 11
257.8904432104455
 21
5242.014179017897
 31
0.0
  0
LINE
  5
9252
330
2
100
AcDbEntity
  8
0
100
AcDbLine
 10
279.6404432104455
 20
5244.194179017897
 30
0.0
 11
279.6404432104455
 21
5242.014179017897
 31
0.0
  0
LINE
  5
9253
330
2
100
AcDbEntity
  8
0
100
AcDbLine
 10
329.1404432104455
 20
5261.944179017897
 30
0.0
 11
329.1404432104455
 21
5264.124179017897
 31
0.0
  0
LINE
  5
9254
330
2
100
AcDbEntity
  8
0
100
AcDbLine
 10
305.3904432104455
 20
5261.944179017897
 30
0.0
 11
305.3904432104455
 21
5264.124179017897
 31
0.0
  0
LINE
  5
9255
330
2
100
AcDbEntity
  8
0
100
AcDbLine
 10
305.3904432104455
 20
5244.194179017897
 30
0.0
 11
305.3904432104455
 21
5242.014179017897
 31
0.0
  0
LINE
  5
9256
330
2
100
AcDbEntity
  8
0
100
AcDbLine
 10
329.1404432104455
 20
5244.194179017897
 30
0.0
 11
329.1404432104455
 21
5242.014179017897
 31
0.0
  0
LINE
  5
9257
330
2
100
AcDbEntity
  8
0
100
AcDbLine
 10
354.8904432104455
 20
5244.194179017897
 30
0.0
 11
354.8904432104455
 21
5242.014179017897
 31
0.0
  0
LINE
  5
9258
330
2
100
AcDbEntity
  8
0
100
AcDbLine
 10
380.6404432104455
 20
5244.194179017897
 30
0.0
 11
380.6404432104455
 21
5242.014179017897
 31
0.0
  0
LINE
  5
9259
330
2
100
AcDbEntity
  8
0
100
AcDbLine
 10
380.6404432104455
 20
5261.944179017897
 30
0.0
 11
380.6404432104455
 21
5264.124179017897
 31
0.0
  0
LINE
  5
925A
330
2
100
AcDbEntity
  8
0
100
AcDbLine
 10
354.8904432104455
 20
5261.944179017897
 30
0.0
 11
354.8904432104455
 21
5264.124179017897
 31
0.0
  0
LINE
  5
925B
330
2
100
AcDbEntity
  8
0
100
AcDbLine
 10
436.1404432104455
 20
5261.944179017897
 30
0.0
 11
436.1404432104455
 21
5264.124179017897
 31
0.0
  0
LINE
  5
925C
330
2
100
AcDbEntity
  8
0
100
AcDbLine
 10
406.3904432104455
 20
5261.944179017897
 30
0.0
 11
406.3904432104455
 21
5264.124179017897
 31
0.0
  0
LINE
  5
925D
330
2
100
AcDbEntity
  8
0
100
AcDbLine
 10
406.3904432104455
 20
5244.194179017897
 30
0.0
 11
406.3904432104455
 21
5242.014179017897
 31
0.0
  0
LINE
  5
925E
330
2
100
AcDbEntity
  8
0
100
AcDbLine
 10
436.1404432104455
 20
5244.194179017897
 30
0.0
 11
436.1404432104455
 21
5242.014179017897
 31
0.0
  0
LINE
  5
925F
330
2
100
AcDbEntity
  8
0
100
AcDbLine
 10
497.6404432104455
 20
5261.944179017897
 30
0.0
 11
497.6404432104455
 21
5264.124179017897
 31
0.0
  0
LINE
  5
9260
330
2
100
AcDbEntity
  8
0
100
AcDbLine
 10
461.8904432104455
 20
5261.944179017897
 30
0.0
 11
461.8904432104455
 21
5264.124179017897
 31
0.0
  0
LINE
  5
9261
330
2
100
AcDbEntity
  8
0
100
AcDbLine
 10
461.8904432104455
 20
5244.194179017897
 30
0.0
 11
461.8904432104455
 21
5242.014179017897
 31
0.0
  0
LINE
  5
9262
330
2
100
AcDbEntity
  8
0
100
AcDbLine
 10
497.6404432104455
 20
5244.194179017897
 30
0.0
 11
497.6404432104455
 21
5242.014179017897
 31
0.0
  0
LINE
  5
9263
330
2
100
AcDbEntity
  8
0
100
AcDbLine
 10
149.1404432104455
 20
5143.194179017897
 30
0.0
 11
149.1404432104455
 21
5141.014179017897
 31
0.0
  0
LINE
  5
9264
330
2
100
AcDbEntity
  8
0
100
AcDbLine
 10
137.3904432104455
 20
5143.194179017897
 30
0.0
 11
137.3904432104455
 21
5141.014179017897
 31
0.0
  0
LINE
  5
9265
330
2
100
AcDbEntity
  8
0
100
AcDbLine
 10
137.3904432104455
 20
5172.944179017897
 30
0.0
 11
137.3904432104455
 21
5175.124179017897
 31
0.0
  0
LINE
  5
9266
330
2
100
AcDbEntity
  8
0
100
AcDbLine
 10
149.1404432104455
 20
5172.944179017897
 30
0.0
 11
149.1404432104455
 21
5175.124179017897
 31
0.0
  0
LINE
  5
9267
330
2
100
AcDbEntity
  8
0
100
AcDbLine
 10
188.6404432104455
 20
5143.194179017897
 30
0.0
 11
188.6404432104455
 21
5141.014179017897
 31
0.0
  0
LINE
  5
9268
330
2
100
AcDbEntity
  8
0
100
AcDbLine
 10
174.8904432104455
 20
5143.194179017897
 30
0.0
 11
174.8904432104455
 21
5141.014179017897
 31
0.0
  0
LINE
  5
9269
330
2
100
AcDbEntity
  8
0
100
AcDbLine
 10
174.8904432104455
 20
5172.944179017897
 30
0.0
 11
174.8904432104455
 21
5175.124179017897
 31
0.0
  0
LINE
  5
926A
330
2
100
AcDbEntity
  8
0
100
AcDbLine
 10
188.6404432104455
 20
5172.944179017897
 30
0.0
 11
188.6404432104455
 21
5175.124179017897
 31
0.0
  0
LINE
  5
926B
330
2
100
AcDbEntity
  8
0
100
AcDbLine
 10
214.3904432104455
 20
5143.194179017897
 30
0.0
 11
214.3904432104455
 21
5141.014179017897
 31
0.0
  0
LINE
  5
926C
330
2
100
AcDbEntity
  8
0
100
AcDbLine
 10
232.1404432104455
 20
5143.194179017897
 30
0.0
 11
232.1404432104455
 21
5141.014179017897
 31
0.0
  0
LINE
  5
926D
330
2
100
AcDbEntity
  8
0
100
AcDbLine
 10
232.1404432104455
 20
5172.944179017897
 30
0.0
 11
232.1404432104455
 21
5175.124179017897
 31
0.0
  0
LINE
  5
926E
330
2
100
AcDbEntity
  8
0
100
AcDbLine
 10
214.3904432104455
 20
5172.944179017897
 30
0.0
 11
214.3904432104455
 21
5175.124179017897
 31
0.0
  0
LINE
  5
926F
330
2
100
AcDbEntity
  8
0
100
AcDbLine
 10
257.8904432104455
 20
5143.194179017897
 30
0.0
 11
257.8904432104455
 21
5141.014179017897
 31
0.0
  0
LINE
  5
9270
330
2
100
AcDbEntity
  8
0
100
AcDbLine
 10
279.6404432104455
 20
5143.194179017897
 30
0.0
 11
279.6404432104455
 21
5141.014179017897
 31
0.0
  0
LINE
  5
9271
330
2
100
AcDbEntity
  8
0
100
AcDbLine
 10
279.6404432104455
 20
5172.944179017897
 30
0.0
 11
279.6404432104455
 21
5175.124179017897
 31
0.0
  0
LINE
  5
9272
330
2
100
AcDbEntity
  8
0
100
AcDbLine
 10
257.8904432104455
 20
5172.944179017897
 30
0.0
 11
257.8904432104455
 21
5175.124179017897
 31
0.0
  0
LINE
  5
9273
330
2
100
AcDbEntity
  8
0
100
AcDbLine
 10
305.3904432104455
 20
5143.194179017897
 30
0.0
 11
305.3904432104455
 21
5141.014179017897
 31
0.0
  0
LINE
  5
9274
330
2
100
AcDbEntity
  8
0
100
AcDbLine
 10
329.1404432104455
 20
5143.194179017897
 30
0.0
 11
329.1404432104455
 21
5141.014179017897
 31
0.0
  0
LINE
  5
9275
330
2
100
AcDbEntity
  8
0
100
AcDbLine
 10
329.1404432104455
 20
5172.944179017897
 30
0.0
 11
329.1404432104455
 21
5175.124179017897
 31
0.0
  0
LINE
  5
9276
330
2
100
AcDbEntity
  8
0
100
AcDbLine
 10
305.3904432104455
 20
5172.944179017897
 30
0.0
 11
305.3904432104455
 21
5175.124179017897
 31
0.0
  0
LINE
  5
9277
330
2
100
AcDbEntity
  8
0
100
AcDbLine
 10
354.8904432104455
 20
5172.944179017897
 30
0.0
 11
354.8904432104455
 21
5175.124179017897
 31
0.0
  0
LINE
  5
9278
330
2
100
AcDbEntity
  8
0
100
AcDbLine
 10
380.6404432104455
 20
5172.944179017897
 30
0.0
 11
380.6404432104455
 21
5175.124179017897
 31
0.0
  0
LINE
  5
9279
330
2
100
AcDbEntity
  8
0
100
AcDbLine
 10
380.6404432104455
 20
5143.194179017897
 30
0.0
 11
380.6404432104455
 21
5141.014179017897
 31
0.0
  0
LINE
  5
927A
330
2
100
AcDbEntity
  8
0
100
AcDbLine
 10
354.8904432104455
 20
5143.194179017897
 30
0.0
 11
354.8904432104455
 21
5141.014179017897
 31
0.0
  0
LINE
  5
927B
330
2
100
AcDbEntity
  8
0
100
AcDbLine
 10
406.3904432104455
 20
5143.194179017897
 30
0.0
 11
406.3904432104455
 21
5141.014179017897
 31
0.0
  0
LINE
  5
927C
330
2
100
AcDbEntity
  8
0
100
AcDbLine
 10
436.1404432104455
 20
5143.194179017897
 30
0.0
 11
436.1404432104455
 21
5141.014179017897
 31
0.0
  0
LINE
  5
927D
330
2
100
AcDbEntity
  8
0
100
AcDbLine
 10
436.1404432104455
 20
5172.944179017897
 30
0.0
 11
436.1404432104455
 21
5175.124179017897
 31
0.0
  0
LINE
  5
927E
330
2
100
AcDbEntity
  8
0
100
AcDbLine
 10
406.3904432104455
 20
5172.944179017897
 30
0.0
 11
406.3904432104455
 21
5175.124179017897
 31
0.0
  0
LINE
  5
927F
330
2
100
AcDbEntity
  8
0
100
AcDbLine
 10
497.6404432104455
 20
5172.944179017897
 30
0.0
 11
497.6404432104455
 21
5175.124179017897
 31
0.0
  0
LINE
  5
9280
330
2
100
AcDbEntity
  8
0
100
AcDbLine
 10
461.8904432104455
 20
5172.944179017897
 30
0.0
 11
461.8904432104455
 21
5175.124179017897
 31
0.0
  0
LINE
  5
9281
330
2
100
AcDbEntity
  8
0
100
AcDbLine
 10
461.8904432104455
 20
5143.194179017897
 30
0.0
 11
461.8904432104455
 21
5141.014179017897
 31
0.0
  0
LINE
  5
9282
330
2
100
AcDbEntity
  8
0
100
AcDbLine
 10
497.6404432104455
 20
5143.194179017897
 30
0.0
 11
497.6404432104455
 21
5141.014179017897
 31
0.0
  0
LINE
  5
9283
330
2
100
AcDbEntity
  8
0
100
AcDbLine
 10
268.7654432104455
 20
5220.444179017897
 30
0.0
 11
268.7654432104455
 21
5196.694179017897
 31
0.0
  0
LWPOLYLINE
  5
9284
330
2
100
AcDbEntity
  8
0
100
AcDbPolyline
 90
        4
 70
     1
 43
0.0
 10
282.5154432104455
 20
5223.319179017897
 10
282.5154432104455
 20
5193.819179017897
 10
255.0154432104455
 20
5193.819179017897
 10
255.0154432104455
 20
5223.319179017897
  0
LWPOLYLINE
  5
9285
330
2
100
AcDbEntity
  8
0
100
AcDbPolyline
 90
        4
 70
     1
 43
0.0
 10
279.6404432104455
 20
5220.444179017897
 10
279.6404432104455
 20
5196.694179017897
 10
257.8904432104455
 20
5196.694179017897
 10
257.8904432104455
 20
5220.444179017897
  0
LWPOLYLINE
  5
9286
330
2
100
AcDbEntity
  8
0
100
AcDbPolyline
 90
        4
 70
     1
 43
0.0
 10
281.8204432104458
 20
5222.624179017897
 10
281.8204432104458
 20
5194.514179017897
 10
255.7104432104452
 20
5194.514179017897
 10
255.7104432104452
 20
5222.624179017897
  0
LINE
  5
9287
330
2
100
AcDbEntity
  8
0
100
AcDbLine
 10
317.2654432104455
 20
5220.444179017897
 30
0.0
 11
317.2654432104455
 21
5196.694179017897
 31
0.0
  0
LINE
  5
9288
330
2
100
AcDbEntity
  8
0
100
AcDbLine
 10
223.2654432104455
 20
5220.444179017897
 30
0.0
 11
223.2654432104455
 21
5196.694179017897
 31
0.0
  0
LWPOLYLINE
  5
9289
330
2
100
AcDbEntity
  8
0
100
AcDbPolyline
 90
        4
 70
     1
 43
0.0
 10
152.0154432104455
 20
5223.319179017897
 10
152.0154432104455
 20
5193.819179017897
 10
134.5154432104455
 20
5193.819179017897
 10
134.5154432104455
 20
5223.319179017897
  0
LWPOLYLINE
  5
928A
330
2
100
AcDbEntity
  8
0
100
AcDbPolyline
 90
        4
 70
     1
 43
0.0
 10
149.1404432104455
 20
5220.444179017897
 10
149.1404432104455
 20
5196.694179017897
 10
137.3904432104455
 20
5196.694179017897
 10
137.3904432104455
 20
5220.444179017897
  0
LWPOLYLINE
  5
928B
330
2
100
AcDbEntity
  8
0
100
AcDbPolyline
 90
        4
 70
     1
 43
0.0
 10
151.3204432104458
 20
5222.624179017897
 10
151.3204432104458
 20
5194.514179017897
 10
135.2104432104452
 20
5194.514179017897
 10
135.2104432104452
 20
5222.624179017897
  0
LINE
  5
928C
330
2
100
AcDbEntity
  8
0
100
AcDbLine
 10
143.2654432104455
 20
5220.444179017897
 30
0.0
 11
143.2654432104455
 21
5196.694179017897
 31
0.0
  0
LWPOLYLINE
  5
928D
330
2
100
AcDbEntity
  8
0
100
AcDbPolyline
 90
        4
 70
     1
 43
0.0
 10
235.0154432104455
 20
5223.319179017897
 10
235.0154432104455
 20
5193.819179017897
 10
211.5154432104455
 20
5193.819179017897
 10
211.5154432104455
 20
5223.319179017897
  0
LWPOLYLINE
  5
928E
330
2
100
AcDbEntity
  8
0
100
AcDbPolyline
 90
        4
 70
     1
 43
0.0
 10
232.1404432104455
 20
5220.444179017897
 10
232.1404432104455
 20
5196.694179017897
 10
214.3904432104455
 20
5196.694179017897
 10
214.3904432104455
 20
5220.444179017897
  0
LWPOLYLINE
  5
928F
330
2
100
AcDbEntity
  8
0
100
AcDbPolyline
 90
        4
 70
     1
 43
0.0
 10
234.3204432104458
 20
5222.624179017897
 10
234.3204432104458
 20
5194.514179017897
 10
212.2104432104452
 20
5194.514179017897
 10
212.2104432104452
 20
5222.624179017897
  0
LWPOLYLINE
  5
9290
330
2
100
AcDbEntity
  8
0
100
AcDbPolyline
 90
        4
 70
     1
 43
0.0
 10
332.0154432104455
 20
5223.319179017897
 10
332.0154432104455
 20
5193.819179017897
 10
302.5154432104455
 20
5193.819179017897
 10
302.5154432104455
 20
5223.319179017897
  0
LWPOLYLINE
  5
9291
330
2
100
AcDbEntity
  8
0
100
AcDbPolyline
 90
        4
 70
     1
 43
0.0
 10
329.1404432104455
 20
5220.444179017897
 10
329.1404432104455
 20
5196.694179017897
 10
305.3904432104455
 20
5196.694179017897
 10
305.3904432104455
 20
5220.444179017897
  0
LWPOLYLINE
  5
9292
330
2
100
AcDbEntity
  8
0
100
AcDbPolyline
 90
        4
 70
     1
 43
0.0
 10
331.3204432104458
 20
5222.624179017897
 10
331.3204432104458
 20
5194.514179017897
 10
303.2104432104452
 20
5194.514179017897
 10
303.2104432104452
 20
5222.624179017897
  0
LINE
  5
9293
330
2
100
AcDbEntity
  8
0
100
AcDbLine
 10
137.3904432104455
 20
5208.569179017897
 30
0.0
 11
149.1404432104455
 21
5208.569179017897
 31
0.0
  0
LINE
  5
9294
330
2
100
AcDbEntity
  8
0
100
AcDbLine
 10
135.2104432104461
 20
5194.514179017897
 30
0.0
 11
134.5154432104455
 21
5193.819179017897
 31
0.0
  0
LINE
  5
9295
330
2
100
AcDbEntity
  8
0
100
AcDbLine
 10
234.3204432104449
 20
5194.514179017897
 30
0.0
 11
235.0154432104455
 21
5193.819179017897
 31
0.0
  0
LINE
  5
9296
330
2
100
AcDbEntity
  8
0
100
AcDbLine
 10
212.2104432104461
 20
5194.514179017897
 30
0.0
 11
211.5154432104455
 21
5193.819179017897
 31
0.0
  0
LINE
  5
9297
330
2
100
AcDbEntity
  8
0
100
AcDbLine
 10
151.3204432104449
 20
5194.514179017897
 30
0.0
 11
152.0154432104455
 21
5193.819179017897
 31
0.0
  0
LINE
  5
9298
330
2
100
AcDbEntity
  8
0
100
AcDbLine
 10
214.3904432104455
 20
5208.569179017897
 30
0.0
 11
232.1404432104455
 21
5208.569179017897
 31
0.0
  0
LINE
  5
9299
330
2
100
AcDbEntity
  8
0
100
AcDbLine
 10
257.8904432104455
 20
5208.569179017897
 30
0.0
 11
279.6404432104455
 21
5208.569179017897
 31
0.0
  0
LINE
  5
929A
330
2
100
AcDbEntity
  8
0
100
AcDbLine
 10
255.7104432104461
 20
5194.514179017897
 30
0.0
 11
255.0154432104455
 21
5193.819179017897
 31
0.0
  0
LINE
  5
929B
330
2
100
AcDbEntity
  8
0
100
AcDbLine
 10
281.8204432104449
 20
5194.514179017897
 30
0.0
 11
282.5154432104455
 21
5193.819179017897
 31
0.0
  0
LINE
  5
929C
330
2
100
AcDbEntity
  8
0
100
AcDbLine
 10
331.3204432104449
 20
5194.514179017897
 30
0.0
 11
332.0154432104455
 21
5193.819179017897
 31
0.0
  0
LINE
  5
929D
330
2
100
AcDbEntity
  8
0
100
AcDbLine
 10
303.2104432104461
 20
5194.514179017897
 30
0.0
 11
302.5154432104455
 21
5193.819179017897
 31
0.0
  0
LINE
  5
929E
330
2
100
AcDbEntity
  8
0
100
AcDbLine
 10
305.3904432104455
 20
5208.569179017897
 30
0.0
 11
329.1404432104455
 21
5208.569179017897
 31
0.0
  0
LINE
  5
929F
330
2
100
AcDbEntity
  8
0
100
AcDbLine
 10
134.5154432104455
 20
5223.319179017897
 30
0.0
 11
135.2104432104452
 21
5222.624179017896
 31
0.0
  0
LINE
  5
92A0
330
2
100
AcDbEntity
  8
0
100
AcDbLine
 10
234.3204432104449
 20
5222.624179017896
 30
0.0
 11
235.0154432104455
 21
5223.319179017897
 31
0.0
  0
LINE
  5
92A1
330
2
100
AcDbEntity
  8
0
100
AcDbLine
 10
211.5154432104455
 20
5223.319179017897
 30
0.0
 11
212.2104432104452
 21
5222.624179017896
 31
0.0
  0
LINE
  5
92A2
330
2
100
AcDbEntity
  8
0
100
AcDbLine
 10
151.3204432104449
 20
5222.624179017896
 30
0.0
 11
152.0154432104455
 21
5223.319179017897
 31
0.0
  0
LINE
  5
92A3
330
2
100
AcDbEntity
  8
0
100
AcDbLine
 10
281.8204432104449
 20
5222.624179017896
 30
0.0
 11
282.5154432104455
 21
5223.319179017897
 31
0.0
  0
LINE
  5
92A4
330
2
100
AcDbEntity
  8
0
100
AcDbLine
 10
255.0154432104455
 20
5223.319179017897
 30
0.0
 11
255.7104432104452
 21
5222.624179017896
 31
0.0
  0
LINE
  5
92A5
330
2
100
AcDbEntity
  8
0
100
AcDbLine
 10
331.3204432104449
 20
5222.624179017896
 30
0.0
 11
332.0154432104455
 21
5223.319179017897
 31
0.0
  0
LINE
  5
92A6
330
2
100
AcDbEntity
  8
0
100
AcDbLine
 10
302.5154432104455
 20
5223.319179017897
 30
0.0
 11
303.2104432104452
 21
5222.624179017896
 31
0.0
  0
LINE
  5
92A7
330
2
100
AcDbEntity
  8
0
100
AcDbLine
 10
416.307043210445
 20
5220.444179017897
 30
0.0
 11
416.307043210445
 21
5196.694179017897
 31
0.0
  0
LINE
  5
92A8
330
2
100
AcDbEntity
  8
0
100
AcDbLine
 10
426.223843210445
 20
5220.444179017897
 30
0.0
 11
426.223843210445
 21
5196.694179017897
 31
0.0
  0
LINE
  5
92A9
330
2
100
AcDbEntity
  8
0
100
AcDbLine
 10
372.0571432104452
 20
5220.444179017897
 30
0.0
 11
372.0571432104452
 21
5196.694179017897
 31
0.0
  0
LINE
  5
92AA
330
2
100
AcDbEntity
  8
0
100
AcDbLine
 10
363.4737432104457
 20
5220.444179017897
 30
0.0
 11
363.4737432104457
 21
5196.694179017897
 31
0.0
  0
LWPOLYLINE
  5
92AB
330
2
100
AcDbEntity
  8
0
100
AcDbPolyline
 90
        4
 70
     1
 43
0.0
 10
383.5154432104455
 20
5223.319179017897
 10
383.5154432104455
 20
5193.819179017897
 10
352.0154432104455
 20
5193.819179017897
 10
352.0154432104455
 20
5223.319179017897
  0
LWPOLYLINE
  5
92AC
330
2
100
AcDbEntity
  8
0
100
AcDbPolyline
 90
        4
 70
     1
 43
0.0
 10
380.6404432104455
 20
5220.444179017897
 10
380.6404432104455
 20
5196.694179017897
 10
354.8904432104455
 20
5196.694179017897
 10
354.8904432104455
 20
5220.444179017897
  0
LWPOLYLINE
  5
92AD
330
2
100
AcDbEntity
  8
0
100
AcDbPolyline
 90
        4
 70
     1
 43
0.0
 10
382.8204432104458
 20
5222.624179017897
 10
382.8204432104458
 20
5194.514179017897
 10
352.7104432104452
 20
5194.514179017897
 10
352.7104432104452
 20
5222.624179017897
  0
LWPOLYLINE
  5
92AE
330
2
100
AcDbEntity
  8
0
100
AcDbPolyline
 90
        4
 70
     1
 43
0.0
 10
439.0154432104455
 20
5223.319179017897
 10
439.0154432104455
 20
5193.819179017897
 10
403.5154432104455
 20
5193.819179017897
 10
403.5154432104455
 20
5223.319179017897
  0
LWPOLYLINE
  5
92AF
330
2
100
AcDbEntity
  8
0
100
AcDbPolyline
 90
        4
 70
     1
 43
0.0
 10
436.1404432104455
 20
5220.444179017897
 10
436.1404432104455
 20
5196.694179017897
 10
406.3904432104455
 20
5196.694179017897
 10
406.3904432104455
 20
5220.444179017897
  0
LWPOLYLINE
  5
92B0
330
2
100
AcDbEntity
  8
0
100
AcDbPolyline
 90
        4
 70
     1
 43
0.0
 10
438.3204432104458
 20
5222.624179017897
 10
438.3204432104458
 20
5194.514179017897
 10
404.2104432104452
 20
5194.514179017897
 10
404.2104432104452
 20
5222.624179017897
  0
LINE
  5
92B1
330
2
100
AcDbEntity
  8
0
100
AcDbLine
 10
382.8204432104449
 20
5194.514179017897
 30
0.0
 11
383.5154432104455
 21
5193.819179017897
 31
0.0
  0
LINE
  5
92B2
330
2
100
AcDbEntity
  8
0
100
AcDbLine
 10
352.7104432104461
 20
5194.514179017897
 30
0.0
 11
352.0154432104455
 21
5193.819179017897
 31
0.0
  0
LINE
  5
92B3
330
2
100
AcDbEntity
  8
0
100
AcDbLine
 10
354.8904432104455
 20
5208.569179017897
 30
0.0
 11
380.6404432104455
 21
5208.569179017897
 31
0.0
  0
LINE
  5
92B4
330
2
100
AcDbEntity
  8
0
100
AcDbLine
 10
438.3204432104449
 20
5194.514179017897
 30
0.0
 11
439.0154432104455
 21
5193.819179017897
 31
0.0
  0
LINE
  5
92B5
330
2
100
AcDbEntity
  8
0
100
AcDbLine
 10
404.2104432104461
 20
5194.514179017897
 30
0.0
 11
403.5154432104455
 21
5193.819179017897
 31
0.0
  0
LINE
  5
92B6
330
2
100
AcDbEntity
  8
0
100
AcDbLine
 10
406.3904432104455
 20
5208.569179017897
 30
0.0
 11
436.1404432104455
 21
5208.569179017897
 31
0.0
  0
LINE
  5
92B7
330
2
100
AcDbEntity
  8
0
100
AcDbLine
 10
382.8204432104449
 20
5222.624179017896
 30
0.0
 11
383.5154432104455
 21
5223.319179017897
 31
0.0
  0
LINE
  5
92B8
330
2
100
AcDbEntity
  8
0
100
AcDbLine
 10
352.0154432104455
 20
5223.319179017897
 30
0.0
 11
352.7104432104452
 21
5222.624179017896
 31
0.0
  0
LINE
  5
92B9
330
2
100
AcDbEntity
  8
0
100
AcDbLine
 10
438.3204432104449
 20
5222.624179017896
 30
0.0
 11
439.0154432104455
 21
5223.319179017897
 31
0.0
  0
LINE
  5
92BA
330
2
100
AcDbEntity
  8
0
100
AcDbLine
 10
403.5154432104455
 20
5223.319179017897
 30
0.0
 11
404.2104432104452
 21
5222.624179017896
 31
0.0
  0
LWPOLYLINE
  5
92BB
330
2
100
AcDbEntity
  8
0
100
AcDbPolyline
 90
        4
 70
     1
 43
0.0
 10
191.5154432104455
 20
5223.319179017897
 10
191.5154432104455
 20
5193.819179017897
 10
172.0154432104455
 20
5193.819179017897
 10
172.0154432104455
 20
5223.319179017897
  0
LWPOLYLINE
  5
92BC
330
2
100
AcDbEntity
  8
0
100
AcDbPolyline
 90
        4
 70
     1
 43
0.0
 10
188.6404432104455
 20
5220.444179017897
 10
188.6404432104455
 20
5196.694179017897
 10
174.8904432104455
 20
5196.694179017897
 10
174.8904432104455
 20
5220.444179017897
  0
LWPOLYLINE
  5
92BD
330
2
100
AcDbEntity
  8
0
100
AcDbPolyline
 90
        4
 70
     1
 43
0.0
 10
190.8204432104458
 20
5222.624179017897
 10
190.8204432104458
 20
5194.514179017897
 10
172.7104432104452
 20
5194.514179017897
 10
172.7104432104452
 20
5222.624179017897
  0
LINE
  5
92BE
330
2
100
AcDbEntity
  8
0
100
AcDbLine
 10
181.7654432104455
 20
5220.444179017897
 30
0.0
 11
181.7654432104455
 21
5196.694179017897
 31
0.0
  0
LINE
  5
92BF
330
2
100
AcDbEntity
  8
0
100
AcDbLine
 10
174.8904432104455
 20
5208.569179017897
 30
0.0
 11
188.6404432104455
 21
5208.569179017897
 31
0.0
  0
LINE
  5
92C0
330
2
100
AcDbEntity
  8
0
100
AcDbLine
 10
172.7104432104461
 20
5194.514179017897
 30
0.0
 11
172.0154432104455
 21
5193.819179017897
 31
0.0
  0
LINE
  5
92C1
330
2
100
AcDbEntity
  8
0
100
AcDbLine
 10
190.8204432104449
 20
5194.514179017897
 30
0.0
 11
191.5154432104455
 21
5193.819179017897
 31
0.0
  0
LINE
  5
92C2
330
2
100
AcDbEntity
  8
0
100
AcDbLine
 10
172.0154432104455
 20
5223.319179017897
 30
0.0
 11
172.7104432104452
 21
5222.624179017896
 31
0.0
  0
LINE
  5
92C3
330
2
100
AcDbEntity
  8
0
100
AcDbLine
 10
190.8204432104449
 20
5222.624179017896
 30
0.0
 11
191.5154432104455
 21
5223.319179017897
 31
0.0
  0
LINE
  5
92C4
330
2
100
AcDbEntity
  8
0
100
AcDbLine
 10
470.8279432104455
 20
5220.444179017897
 30
0.0
 11
470.8279432104455
 21
5196.694179017897
 31
0.0
  0
LINE
  5
92C5
330
2
100
AcDbEntity
  8
0
100
AcDbLine
 10
488.7029432104455
 20
5220.444179017897
 30
0.0
 11
488.7029432104455
 21
5196.694179017897
 31
0.0
  0
LWPOLYLINE
  5
92C6
330
2
100
AcDbEntity
  8
0
100
AcDbPolyline
 90
        4
 70
     1
 43
0.0
 10
500.5154432104455
 20
5223.319179017897
 10
500.5154432104455
 20
5193.819179017897
 10
459.0154432104455
 20
5193.819179017897
 10
459.0154432104455
 20
5223.319179017897
  0
LWPOLYLINE
  5
92C7
330
2
100
AcDbEntity
  8
0
100
AcDbPolyline
 90
        4
 70
     1
 43
0.0
 10
497.6404432104455
 20
5220.444179017897
 10
497.6404432104455
 20
5196.694179017897
 10
461.8904432104455
 20
5196.694179017897
 10
461.8904432104455
 20
5220.444179017897
  0
LWPOLYLINE
  5
92C8
330
2
100
AcDbEntity
  8
0
100
AcDbPolyline
 90
        4
 70
     1
 43
0.0
 10
499.8204432104458
 20
5222.624179017897
 10
499.8204432104458
 20
5194.514179017897
 10
459.7104432104452
 20
5194.514179017897
 10
459.7104432104452
 20
5222.624179017897
  0
LINE
  5
92C9
330
2
100
AcDbEntity
  8
0
100
AcDbLine
 10
499.8204432104449
 20
5194.514179017897
 30
0.0
 11
500.5154432104455
 21
5193.819179017897
 31
0.0
  0
LINE
  5
92CA
330
2
100
AcDbEntity
  8
0
100
AcDbLine
 10
459.7104432104461
 20
5194.514179017897
 30
0.0
 11
459.0154432104455
 21
5193.819179017897
 31
0.0
  0
LINE
  5
92CB
330
2
100
AcDbEntity
  8
0
100
AcDbLine
 10
461.8904432104455
 20
5208.569179017897
 30
0.0
 11
497.6404432104455
 21
5208.569179017897
 31
0.0
  0
LINE
  5
92CC
330
2
100
AcDbEntity
  8
0
100
AcDbLine
 10
499.8204432104449
 20
5222.624179017896
 30
0.0
 11
500.5154432104455
 21
5223.319179017897
 31
0.0
  0
LINE
  5
92CD
330
2
100
AcDbEntity
  8
0
100
AcDbLine
 10
459.0154432104455
 20
5223.319179017897
 30
0.0
 11
459.7104432104452
 21
5222.624179017896
 31
0.0
  0
LINE
  5
92CE
330
2
100
AcDbEntity
  8
0
100
AcDbLine
 10
479.7654432104455
 20
5220.444179017897
 30
0.0
 11
479.7654432104455
 21
5196.694179017897
 31
0.0
  0
LINE
  5
92CF
330
2
100
AcDbEntity
  8
0
100
AcDbLine
 10
149.1404432104455
 20
5196.694179017897
 30
0.0
 11
149.1404432104455
 21
5194.514179017897
 31
0.0
  0
LINE
  5
92D0
330
2
100
AcDbEntity
  8
0
100
AcDbLine
 10
137.3904432104455
 20
5196.694179017897
 30
0.0
 11
137.3904432104455
 21
5194.514179017897
 31
0.0
  0
LINE
  5
92D1
330
2
100
AcDbEntity
  8
0
100
AcDbLine
 10
137.3904432104455
 20
5220.444179017897
 30
0.0
 11
137.3904432104455
 21
5222.624179017897
 31
0.0
  0
LINE
  5
92D2
330
2
100
AcDbEntity
  8
0
100
AcDbLine
 10
149.1404432104455
 20
5220.444179017897
 30
0.0
 11
149.1404432104455
 21
5222.624179017897
 31
0.0
  0
LINE
  5
92D3
330
2
100
AcDbEntity
  8
0
100
AcDbLine
 10
188.6404432104455
 20
5196.694179017897
 30
0.0
 11
188.6404432104455
 21
5194.514179017897
 31
0.0
  0
LINE
  5
92D4
330
2
100
AcDbEntity
  8
0
100
AcDbLine
 10
174.8904432104455
 20
5196.694179017897
 30
0.0
 11
174.8904432104455
 21
5194.514179017897
 31
0.0
  0
LINE
  5
92D5
330
2
100
AcDbEntity
  8
0
100
AcDbLine
 10
174.8904432104455
 20
5220.444179017897
 30
0.0
 11
174.8904432104455
 21
5222.624179017897
 31
0.0
  0
LINE
  5
92D6
330
2
100
AcDbEntity
  8
0
100
AcDbLine
 10
188.6404432104455
 20
5220.444179017897
 30
0.0
 11
188.6404432104455
 21
5222.624179017897
 31
0.0
  0
LINE
  5
92D7
330
2
100
AcDbEntity
  8
0
100
AcDbLine
 10
232.1404432104455
 20
5220.444179017897
 30
0.0
 11
232.1404432104455
 21
5222.624179017897
 31
0.0
  0
LINE
  5
92D8
330
2
100
AcDbEntity
  8
0
100
AcDbLine
 10
214.3904432104455
 20
5220.444179017897
 30
0.0
 11
214.3904432104455
 21
5222.624179017897
 31
0.0
  0
LINE
  5
92D9
330
2
100
AcDbEntity
  8
0
100
AcDbLine
 10
214.3904432104455
 20
5196.694179017897
 30
0.0
 11
214.3904432104455
 21
5194.514179017897
 31
0.0
  0
LINE
  5
92DA
330
2
100
AcDbEntity
  8
0
100
AcDbLine
 10
232.1404432104455
 20
5196.694179017897
 30
0.0
 11
232.1404432104455
 21
5194.514179017897
 31
0.0
  0
LINE
  5
92DB
330
2
100
AcDbEntity
  8
0
100
AcDbLine
 10
279.6404432104455
 20
5220.444179017897
 30
0.0
 11
279.6404432104455
 21
5222.624179017897
 31
0.0
  0
LINE
  5
92DC
330
2
100
AcDbEntity
  8
0
100
AcDbLine
 10
257.8904432104455
 20
5220.444179017897
 30
0.0
 11
257.8904432104455
 21
5222.624179017897
 31
0.0
  0
LINE
  5
92DD
330
2
100
AcDbEntity
  8
0
100
AcDbLine
 10
257.8904432104455
 20
5196.694179017897
 30
0.0
 11
257.8904432104455
 21
5194.514179017897
 31
0.0
  0
LINE
  5
92DE
330
2
100
AcDbEntity
  8
0
100
AcDbLine
 10
279.6404432104455
 20
5196.694179017897
 30
0.0
 11
279.6404432104455
 21
5194.514179017897
 31
0.0
  0
LINE
  5
92DF
330
2
100
AcDbEntity
  8
0
100
AcDbLine
 10
329.1404432104455
 20
5220.444179017897
 30
0.0
 11
329.1404432104455
 21
5222.624179017897
 31
0.0
  0
LINE
  5
92E0
330
2
100
AcDbEntity
  8
0
100
AcDbLine
 10
305.3904432104455
 20
5220.444179017897
 30
0.0
 11
305.3904432104455
 21
5222.624179017897
 31
0.0
  0
LINE
  5
92E1
330
2
100
AcDbEntity
  8
0
100
AcDbLine
 10
305.3904432104455
 20
5196.694179017897
 30
0.0
 11
305.3904432104455
 21
5194.514179017897
 31
0.0
  0
LINE
  5
92E2
330
2
100
AcDbEntity
  8
0
100
AcDbLine
 10
329.1404432104455
 20
5196.694179017897
 30
0.0
 11
329.1404432104455
 21
5194.514179017897
 31
0.0
  0
LINE
  5
92E3
330
2
100
AcDbEntity
  8
0
100
AcDbLine
 10
354.8904432104455
 20
5196.694179017897
 30
0.0
 11
354.8904432104455
 21
5194.514179017897
 31
0.0
  0
LINE
  5
92E4
330
2
100
AcDbEntity
  8
0
100
AcDbLine
 10
380.6404432104455
 20
5196.694179017897
 30
0.0
 11
380.6404432104455
 21
5194.514179017897
 31
0.0
  0
LINE
  5
92E5
330
2
100
AcDbEntity
  8
0
100
AcDbLine
 10
380.6404432104455
 20
5220.444179017897
 30
0.0
 11
380.6404432104455
 21
5222.624179017897
 31
0.0
  0
LINE
  5
92E6
330
2
100
AcDbEntity
  8
0
100
AcDbLine
 10
354.8904432104455
 20
5220.444179017897
 30
0.0
 11
354.8904432104455
 21
5222.624179017897
 31
0.0
  0
LINE
  5
92E7
330
2
100
AcDbEntity
  8
0
100
AcDbLine
 10
436.1404432104455
 20
5220.444179017897
 30
0.0
 11
436.1404432104455
 21
5222.624179017897
 31
0.0
  0
LINE
  5
92E8
330
2
100
AcDbEntity
  8
0
100
AcDbLine
 10
406.3904432104455
 20
5220.444179017897
 30
0.0
 11
406.3904432104455
 21
5222.624179017897
 31
0.0
  0
LINE
  5
92E9
330
2
100
AcDbEntity
  8
0
100
AcDbLine
 10
406.3904432104455
 20
5196.694179017897
 30
0.0
 11
406.3904432104455
 21
5194.514179017897
 31
0.0
  0
LINE
  5
92EA
330
2
100
AcDbEntity
  8
0
100
AcDbLine
 10
436.1404432104455
 20
5196.694179017897
 30
0.0
 11
436.1404432104455
 21
5194.514179017897
 31
0.0
  0
LINE
  5
92EB
330
2
100
AcDbEntity
  8
0
100
AcDbLine
 10
497.6404432104455
 20
5220.444179017897
 30
0.0
 11
497.6404432104455
 21
5222.624179017897
 31
0.0
  0
LINE
  5
92EC
330
2
100
AcDbEntity
  8
0
100
AcDbLine
 10
461.8904432104455
 20
5220.444179017897
 30
0.0
 11
461.8904432104455
 21
5222.624179017897
 31
0.0
  0
LINE
  5
92ED
330
2
100
AcDbEntity
  8
0
100
AcDbLine
 10
461.8904432104455
 20
5196.694179017897
 30
0.0
 11
461.8904432104455
 21
5194.514179017897
 31
0.0
  0
LINE
  5
92EE
330
2
100
AcDbEntity
  8
0
100
AcDbLine
 10
497.6404432104455
 20
5196.694179017897
 30
0.0
 11
497.6404432104455
 21
5194.514179017897
 31
0.0
  0
LINE
  5
92EF
330
2
100
AcDbEntity
  8
0
100
AcDbLine
 10
268.7654432104455
 20
5334.944179017897
 30
0.0
 11
268.7654432104455
 21
5323.194179017897
 31
0.0
  0
LWPOLYLINE
  5
92F0
330
2
100
AcDbEntity
  8
0
100
AcDbPolyline
 90
        4
 70
     1
 43
0.0
 10
282.5154432104455
 20
5337.819179017897
 10
282.5154432104455
 20
5320.319179017897
 10
255.0154432104455
 20
5320.319179017897
 10
255.0154432104455
 20
5337.819179017897
  0
LWPOLYLINE
  5
92F1
330
2
100
AcDbEntity
  8
0
100
AcDbPolyline
 90
        4
 70
     1
 43
0.0
 10
279.6404432104455
 20
5334.944179017897
 10
279.6404432104455
 20
5323.194179017897
 10
257.8904432104455
 20
5323.194179017897
 10
257.8904432104455
 20
5334.944179017897
  0
LWPOLYLINE
  5
92F2
330
2
100
AcDbEntity
  8
0
100
AcDbPolyline
 90
        4
 70
     1
 43
0.0
 10
281.8204432104458
 20
5337.124179017897
 10
281.8204432104458
 20
5321.014179017897
 10
255.7104432104452
 20
5321.014179017897
 10
255.7104432104452
 20
5337.124179017897
  0
LINE
  5
92F3
330
2
100
AcDbEntity
  8
0
100
AcDbLine
 10
317.2654432104455
 20
5334.944179017897
 30
0.0
 11
317.2654432104455
 21
5323.194179017897
 31
0.0
  0
LINE
  5
92F4
330
2
100
AcDbEntity
  8
0
100
AcDbLine
 10
223.2654432104455
 20
5334.944179017897
 30
0.0
 11
223.2654432104455
 21
5323.194179017897
 31
0.0
  0
LWPOLYLINE
  5
92F5
330
2
100
AcDbEntity
  8
0
100
AcDbPolyline
 90
        4
 70
     1
 43
0.0
 10
152.0154432104455
 20
5337.819179017897
 10
152.0154432104455
 20
5320.319179017897
 10
134.5154432104455
 20
5320.319179017897
 10
134.5154432104455
 20
5337.819179017897
  0
LWPOLYLINE
  5
92F6
330
2
100
AcDbEntity
  8
0
100
AcDbPolyline
 90
        4
 70
     1
 43
0.0
 10
149.1404432104455
 20
5334.944179017897
 10
149.1404432104455
 20
5323.194179017897
 10
137.3904432104455
 20
5323.194179017897
 10
137.3904432104455
 20
5334.944179017897
  0
LWPOLYLINE
  5
92F7
330
2
100
AcDbEntity
  8
0
100
AcDbPolyline
 90
        4
 70
     1
 43
0.0
 10
151.3204432104458
 20
5337.124179017897
 10
151.3204432104458
 20
5321.014179017897
 10
135.2104432104452
 20
5321.014179017897
 10
135.2104432104452
 20
5337.124179017897
  0
LINE
  5
92F8
330
2
100
AcDbEntity
  8
0
100
AcDbLine
 10
143.2654432104455
 20
5334.944179017897
 30
0.0
 11
143.2654432104455
 21
5323.194179017897
 31
0.0
  0
LWPOLYLINE
  5
92F9
330
2
100
AcDbEntity
  8
0
100
AcDbPolyline
 90
        4
 70
     1
 43
0.0
 10
235.0154432104455
 20
5337.819179017897
 10
235.0154432104455
 20
5320.319179017897
 10
211.5154432104455
 20
5320.319179017897
 10
211.5154432104455
 20
5337.819179017897
  0
LWPOLYLINE
  5
92FA
330
2
100
AcDbEntity
  8
0
100
AcDbPolyline
 90
        4
 70
     1
 43
0.0
 10
232.1404432104455
 20
5334.944179017897
 10
232.1404432104455
 20
5323.194179017897
 10
214.3904432104455
 20
5323.194179017897
 10
214.3904432104455
 20
5334.944179017897
  0
LWPOLYLINE
  5
92FB
330
2
100
AcDbEntity
  8
0
100
AcDbPolyline
 90
        4
 70
     1
 43
0.0
 10
234.3204432104458
 20
5337.124179017897
 10
234.3204432104458
 20
5321.014179017897
 10
212.2104432104452
 20
5321.014179017897
 10
212.2104432104452
 20
5337.124179017897
  0
LWPOLYLINE
  5
92FC
330
2
100
AcDbEntity
  8
0
100
AcDbPolyline
 90
        4
 70
     1
 43
0.0
 10
332.0154432104455
 20
5337.819179017897
 10
332.0154432104455
 20
5320.319179017897
 10
302.5154432104455
 20
5320.319179017897
 10
302.5154432104455
 20
5337.819179017897
  0
LWPOLYLINE
  5
92FD
330
2
100
AcDbEntity
  8
0
100
AcDbPolyline
 90
        4
 70
     1
 43
0.0
 10
329.1404432104455
 20
5334.944179017897
 10
329.1404432104455
 20
5323.194179017897
 10
305.3904432104455
 20
5323.194179017897
 10
305.3904432104455
 20
5334.944179017897
  0
LWPOLYLINE
  5
92FE
330
2
100
AcDbEntity
  8
0
100
AcDbPolyline
 90
        4
 70
     1
 43
0.0
 10
331.3204432104458
 20
5337.124179017897
 10
331.3204432104458
 20
5321.014179017897
 10
303.2104432104452
 20
5321.014179017897
 10
303.2104432104452
 20
5337.124179017897
  0
TEXT
  5
92FF
330
2
100
AcDbEntity
  8
0
100
AcDbText
 10
133.9421144246338
 20
5310.66776793837
 30
0.0
 40
6.0
  1
1616
  7
ARIAL
 72
     1
 11
143.2654432104455
 21
5310.66776793837
 31
0.0
100
AcDbText
  0
LINE
  5
9300
330
2
100
AcDbEntity
  8
0
100
AcDbLine
 10
135.2104432104461
 20
5321.014179017897
 30
0.0
 11
134.5154432104455
 21
5320.319179017897
 31
0.0
  0
LINE
  5
9301
330
2
100
AcDbEntity
  8
0
100
AcDbLine
 10
234.3204432104449
 20
5321.014179017897
 30
0.0
 11
235.0154432104455
 21
5320.319179017897
 31
0.0
  0
LINE
  5
9302
330
2
100
AcDbEntity
  8
0
100
AcDbLine
 10
212.2104432104461
 20
5321.014179017897
 30
0.0
 11
211.5154432104455
 21
5320.319179017897
 31
0.0
  0
LINE
  5
9303
330
2
100
AcDbEntity
  8
0
100
AcDbLine
 10
151.3204432104449
 20
5321.014179017897
 30
0.0
 11
152.0154432104455
 21
5320.319179017897
 31
0.0
  0
TEXT
  5
9304
330
2
100
AcDbEntity
  8
0
100
AcDbText
 10
213.9421144246338
 20
5310.66776793837
 30
0.0
 40
6.0
  1
2016
  7
ARIAL
 72
     1
 11
223.2654432104455
 21
5310.66776793837
 31
0.0
100
AcDbText
  0
TEXT
  5
9305
330
2
100
AcDbEntity
  8
0
100
AcDbText
 10
259.4421144246338
 20
5310.66776793837
 30
0.0
 40
6.0
  1
2416
  7
ARIAL
 72
     1
 11
268.7654432104455
 21
5310.66776793837
 31
0.0
100
AcDbText
  0
LINE
  5
9306
330
2
100
AcDbEntity
  8
0
100
AcDbLine
 10
255.7104432104461
 20
5321.014179017897
 30
0.0
 11
255.0154432104455
 21
5320.319179017897
 31
0.0
  0
LINE
  5
9307
330
2
100
AcDbEntity
  8
0
100
AcDbLine
 10
281.8204432104449
 20
5321.014179017897
 30
0.0
 11
282.5154432104455
 21
5320.319179017897
 31
0.0
  0
LINE
  5
9308
330
2
100
AcDbEntity
  8
0
100
AcDbLine
 10
331.3204432104449
 20
5321.014179017897
 30
0.0
 11
332.0154432104455
 21
5320.319179017897
 31
0.0
  0
LINE
  5
9309
330
2
100
AcDbEntity
  8
0
100
AcDbLine
 10
303.2104432104461
 20
5321.014179017897
 30
0.0
 11
302.5154432104455
 21
5320.319179017897
 31
0.0
  0
TEXT
  5
930A
330
2
100
AcDbEntity
  8
0
100
AcDbText
 10
307.9421144246338
 20
5310.66776793837
 30
0.0
 40
6.0
  1
2616
  7
ARIAL
 72
     1
 11
317.2654432104455
 21
5310.66776793837
 31
0.0
100
AcDbText
  0
LINE
  5
930B
330
2
100
AcDbEntity
  8
0
100
AcDbLine
 10
134.5154432104455
 20
5337.819179017897
 30
0.0
 11
135.2104432104452
 21
5337.124179017896
 31
0.0
  0
LINE
  5
930C
330
2
100
AcDbEntity
  8
0
100
AcDbLine
 10
234.3204432104449
 20
5337.124179017896
 30
0.0
 11
235.0154432104455
 21
5337.819179017897
 31
0.0
  0
LINE
  5
930D
330
2
100
AcDbEntity
  8
0
100
AcDbLine
 10
211.5154432104455
 20
5337.819179017897
 30
0.0
 11
212.2104432104452
 21
5337.124179017896
 31
0.0
  0
LINE
  5
930E
330
2
100
AcDbEntity
  8
0
100
AcDbLine
 10
151.3204432104449
 20
5337.124179017896
 30
0.0
 11
152.0154432104455
 21
5337.819179017897
 31
0.0
  0
LINE
  5
930F
330
2
100
AcDbEntity
  8
0
100
AcDbLine
 10
281.8204432104449
 20
5337.124179017896
 30
0.0
 11
282.5154432104455
 21
5337.819179017897
 31
0.0
  0
LINE
  5
9310
330
2
100
AcDbEntity
  8
0
100
AcDbLine
 10
255.0154432104455
 20
5337.819179017897
 30
0.0
 11
255.7104432104452
 21
5337.124179017896
 31
0.0
  0
LINE
  5
9311
330
2
100
AcDbEntity
  8
0
100
AcDbLine
 10
331.3204432104449
 20
5337.124179017896
 30
0.0
 11
332.0154432104455
 21
5337.819179017897
 31
0.0
  0
LINE
  5
9312
330
2
100
AcDbEntity
  8
0
100
AcDbLine
 10
302.5154432104455
 20
5337.819179017897
 30
0.0
 11
303.2104432104452
 21
5337.124179017896
 31
0.0
  0
LINE
  5
9313
330
2
100
AcDbEntity
  8
0
100
AcDbLine
 10
416.307043210445
 20
5334.944179017897
 30
0.0
 11
416.307043210445
 21
5323.194179017897
 31
0.0
  0
LINE
  5
9314
330
2
100
AcDbEntity
  8
0
100
AcDbLine
 10
426.223843210445
 20
5334.944179017897
 30
0.0
 11
426.223843210445
 21
5323.194179017897
 31
0.0
  0
LINE
  5
9315
330
2
100
AcDbEntity
  8
0
100
AcDbLine
 10
372.0571432104452
 20
5334.944179017897
 30
0.0
 11
372.0571432104452
 21
5323.194179017897
 31
0.0
  0
LINE
  5
9316
330
2
100
AcDbEntity
  8
0
100
AcDbLine
 10
363.4737432104457
 20
5334.944179017897
 30
0.0
 11
363.4737432104457
 21
5323.194179017897
 31
0.0
  0
LWPOLYLINE
  5
9317
330
2
100
AcDbEntity
  8
0
100
AcDbPolyline
 90
        4
 70
     1
 43
0.0
 10
383.5154432104455
 20
5337.819179017897
 10
383.5154432104455
 20
5320.319179017897
 10
352.0154432104455
 20
5320.319179017897
 10
352.0154432104455
 20
5337.819179017897
  0
LWPOLYLINE
  5
9318
330
2
100
AcDbEntity
  8
0
100
AcDbPolyline
 90
        4
 70
     1
 43
0.0
 10
380.6404432104455
 20
5334.944179017897
 10
380.6404432104455
 20
5323.194179017897
 10
354.8904432104455
 20
5323.194179017897
 10
354.8904432104455
 20
5334.944179017897
  0
LWPOLYLINE
  5
9319
330
2
100
AcDbEntity
  8
0
100
AcDbPolyline
 90
        4
 70
     1
 43
0.0
 10
382.8204432104458
 20
5337.124179017897
 10
382.8204432104458
 20
5321.014179017897
 10
352.7104432104452
 20
5321.014179017897
 10
352.7104432104452
 20
5337.124179017897
  0
LWPOLYLINE
  5
931A
330
2
100
AcDbEntity
  8
0
100
AcDbPolyline
 90
        4
 70
     1
 43
0.0
 10
439.0154432104455
 20
5337.819179017897
 10
439.0154432104455
 20
5320.319179017897
 10
403.5154432104455
 20
5320.319179017897
 10
403.5154432104455
 20
5337.819179017897
  0
LWPOLYLINE
  5
931B
330
2
100
AcDbEntity
  8
0
100
AcDbPolyline
 90
        4
 70
     1
 43
0.0
 10
436.1404432104455
 20
5334.944179017897
 10
436.1404432104455
 20
5323.194179017897
 10
406.3904432104455
 20
5323.194179017897
 10
406.3904432104455
 20
5334.944179017897
  0
LWPOLYLINE
  5
931C
330
2
100
AcDbEntity
  8
0
100
AcDbPolyline
 90
        4
 70
     1
 43
0.0
 10
438.3204432104458
 20
5337.124179017897
 10
438.3204432104458
 20
5321.014179017897
 10
404.2104432104452
 20
5321.014179017897
 10
404.2104432104452
 20
5337.124179017897
  0
LINE
  5
931D
330
2
100
AcDbEntity
  8
0
100
AcDbLine
 10
382.8204432104449
 20
5321.014179017897
 30
0.0
 11
383.5154432104455
 21
5320.319179017897
 31
0.0
  0
LINE
  5
931E
330
2
100
AcDbEntity
  8
0
100
AcDbLine
 10
352.7104432104461
 20
5321.014179017897
 30
0.0
 11
352.0154432104455
 21
5320.319179017897
 31
0.0
  0
TEXT
  5
931F
330
2
100
AcDbEntity
  8
0
100
AcDbText
 10
358.4421144246338
 20
5310.66776793837
 30
0.0
 40
6.0
  1
2816
  7
ARIAL
 72
     1
 11
367.7654432104455
 21
5310.66776793837
 31
0.0
100
AcDbText
  0
LINE
  5
9320
330
2
100
AcDbEntity
  8
0
100
AcDbLine
 10
438.3204432104449
 20
5321.014179017897
 30
0.0
 11
439.0154432104455
 21
5320.319179017897
 31
0.0
  0
TEXT
  5
9321
330
2
100
AcDbEntity
  8
0
100
AcDbText
 10
411.9421144246338
 20
5310.66776793837
 30
0.0
 40
6.0
  1
3016
  7
ARIAL
 72
     1
 11
421.2654432104455
 21
5310.66776793837
 31
0.0
100
AcDbText
  0
LINE
  5
9322
330
2
100
AcDbEntity
  8
0
100
AcDbLine
 10
404.2104432104461
 20
5321.014179017897
 30
0.0
 11
403.5154432104455
 21
5320.319179017897
 31
0.0
  0
LINE
  5
9323
330
2
100
AcDbEntity
  8
0
100
AcDbLine
 10
382.8204432104449
 20
5337.124179017896
 30
0.0
 11
383.5154432104455
 21
5337.819179017897
 31
0.0
  0
LINE
  5
9324
330
2
100
AcDbEntity
  8
0
100
AcDbLine
 10
352.0154432104455
 20
5337.819179017897
 30
0.0
 11
352.7104432104452
 21
5337.124179017896
 31
0.0
  0
LINE
  5
9325
330
2
100
AcDbEntity
  8
0
100
AcDbLine
 10
438.3204432104449
 20
5337.124179017896
 30
0.0
 11
439.0154432104455
 21
5337.819179017897
 31
0.0
  0
LINE
  5
9326
330
2
100
AcDbEntity
  8
0
100
AcDbLine
 10
403.5154432104455
 20
5337.819179017897
 30
0.0
 11
404.2104432104452
 21
5337.124179017896
 31
0.0
  0
LWPOLYLINE
  5
9327
330
2
100
AcDbEntity
  8
0
100
AcDbPolyline
 90
        4
 70
     1
 43
0.0
 10
191.5154432104455
 20
5337.819179017897
 10
191.5154432104455
 20
5320.319179017897
 10
172.0154432104455
 20
5320.319179017897
 10
172.0154432104455
 20
5337.819179017897
  0
LWPOLYLINE
  5
9328
330
2
100
AcDbEntity
  8
0
100
AcDbPolyline
 90
        4
 70
     1
 43
0.0
 10
188.6404432104455
 20
5334.944179017897
 10
188.6404432104455
 20
5323.194179017897
 10
174.8904432104455
 20
5323.194179017897
 10
174.8904432104455
 20
5334.944179017897
  0
LWPOLYLINE
  5
9329
330
2
100
AcDbEntity
  8
0
100
AcDbPolyline
 90
        4
 70
     1
 43
0.0
 10
190.8204432104458
 20
5337.124179017897
 10
190.8204432104458
 20
5321.014179017897
 10
172.7104432104452
 20
5321.014179017897
 10
172.7104432104452
 20
5337.124179017897
  0
LINE
  5
932A
330
2
100
AcDbEntity
  8
0
100
AcDbLine
 10
181.7654432104455
 20
5334.944179017897
 30
0.0
 11
181.7654432104455
 21
5323.194179017897
 31
0.0
  0
TEXT
  5
932B
330
2
100
AcDbEntity
  8
0
100
AcDbText
 10
172.4421144246338
 20
5310.66776793837
 30
0.0
 40
6.0
  1
1816
  7
ARIAL
 72
     1
 11
181.7654432104455
 21
5310.66776793837
 31
0.0
100
AcDbText
  0
LINE
  5
932C
330
2
100
AcDbEntity
  8
0
100
AcDbLine
 10
172.7104432104461
 20
5321.014179017897
 30
0.0
 11
172.0154432104455
 21
5320.319179017897
 31
0.0
  0
LINE
  5
932D
330
2
100
AcDbEntity
  8
0
100
AcDbLine
 10
190.8204432104449
 20
5321.014179017897
 30
0.0
 11
191.5154432104455
 21
5320.319179017897
 31
0.0
  0
LINE
  5
932E
330
2
100
AcDbEntity
  8
0
100
AcDbLine
 10
172.0154432104455
 20
5337.819179017897
 30
0.0
 11
172.7104432104452
 21
5337.124179017896
 31
0.0
  0
LINE
  5
932F
330
2
100
AcDbEntity
  8
0
100
AcDbLine
 10
190.8204432104449
 20
5337.124179017896
 30
0.0
 11
191.5154432104455
 21
5337.819179017897
 31
0.0
  0
LINE
  5
9330
330
2
100
AcDbEntity
  8
0
100
AcDbLine
 10
470.8279432104455
 20
5334.944179017897
 30
0.0
 11
470.8279432104455
 21
5323.194179017897
 31
0.0
  0
LINE
  5
9331
330
2
100
AcDbEntity
  8
0
100
AcDbLine
 10
488.7029432104455
 20
5334.944179017897
 30
0.0
 11
488.7029432104455
 21
5323.194179017897
 31
0.0
  0
LWPOLYLINE
  5
9332
330
2
100
AcDbEntity
  8
0
100
AcDbPolyline
 90
        4
 70
     1
 43
0.0
 10
500.5154432104455
 20
5337.819179017897
 10
500.5154432104455
 20
5320.319179017897
 10
459.0154432104455
 20
5320.319179017897
 10
459.0154432104455
 20
5337.819179017897
  0
LWPOLYLINE
  5
9333
330
2
100
AcDbEntity
  8
0
100
AcDbPolyline
 90
        4
 70
     1
 43
0.0
 10
497.6404432104455
 20
5334.944179017897
 10
497.6404432104455
 20
5323.194179017897
 10
461.8904432104455
 20
5323.194179017897
 10
461.8904432104455
 20
5334.944179017897
  0
LWPOLYLINE
  5
9334
330
2
100
AcDbEntity
  8
0
100
AcDbPolyline
 90
        4
 70
     1
 43
0.0
 10
499.8204432104458
 20
5337.124179017897
 10
499.8204432104458
 20
5321.014179017897
 10
459.7104432104452
 20
5321.014179017897
 10
459.7104432104452
 20
5337.124179017897
  0
LINE
  5
9335
330
2
100
AcDbEntity
  8
0
100
AcDbLine
 10
499.8204432104449
 20
5321.014179017897
 30
0.0
 11
500.5154432104455
 21
5320.319179017897
 31
0.0
  0
TEXT
  5
9336
330
2
100
AcDbEntity
  8
0
100
AcDbText
 10
470.4421144246338
 20
5310.66776793837
 30
0.0
 40
6.0
  1
3616
  7
ARIAL
 72
     1
 11
479.7654432104455
 21
5310.66776793837
 31
0.0
100
AcDbText
  0
LINE
  5
9337
330
2
100
AcDbEntity
  8
0
100
AcDbLine
 10
459.7104432104461
 20
5321.014179017897
 30
0.0
 11
459.0154432104455
 21
5320.319179017897
 31
0.0
  0
LINE
  5
9338
330
2
100
AcDbEntity
  8
0
100
AcDbLine
 10
499.8204432104449
 20
5337.124179017896
 30
0.0
 11
500.5154432104455
 21
5337.819179017897
 31
0.0
  0
LINE
  5
9339
330
2
100
AcDbEntity
  8
0
100
AcDbLine
 10
459.0154432104455
 20
5337.819179017897
 30
0.0
 11
459.7104432104452
 21
5337.124179017896
 31
0.0
  0
LINE
  5
933A
330
2
100
AcDbEntity
  8
0
100
AcDbLine
 10
479.7654432104455
 20
5334.944179017897
 30
0.0
 11
479.7654432104455
 21
5323.194179017897
 31
0.0
  0
LINE
  5
933B
330
2
100
AcDbEntity
  8
0
100
AcDbLine
 10
149.1404432104455
 20
5323.194179017897
 30
0.0
 11
149.1404432104455
 21
5321.014179017897
 31
0.0
  0
LINE
  5
933C
330
2
100
AcDbEntity
  8
0
100
AcDbLine
 10
137.3904432104455
 20
5323.194179017897
 30
0.0
 11
137.3904432104455
 21
5321.014179017897
 31
0.0
  0
LINE
  5
933D
330
2
100
AcDbEntity
  8
0
100
AcDbLine
 10
137.3904432104455
 20
5334.944179017897
 30
0.0
 11
137.3904432104455
 21
5337.124179017897
 31
0.0
  0
LINE
  5
933E
330
2
100
AcDbEntity
  8
0
100
AcDbLine
 10
149.1404432104455
 20
5334.944179017897
 30
0.0
 11
149.1404432104455
 21
5337.124179017897
 31
0.0
  0
LINE
  5
933F
330
2
100
AcDbEntity
  8
0
100
AcDbLine
 10
188.6404432104455
 20
5323.194179017897
 30
0.0
 11
188.6404432104455
 21
5321.014179017897
 31
0.0
  0
LINE
  5
9340
330
2
100
AcDbEntity
  8
0
100
AcDbLine
 10
174.8904432104455
 20
5323.194179017897
 30
0.0
 11
174.8904432104455
 21
5321.014179017897
 31
0.0
  0
LINE
  5
9341
330
2
100
AcDbEntity
  8
0
100
AcDbLine
 10
174.8904432104455
 20
5334.944179017897
 30
0.0
 11
174.8904432104455
 21
5337.124179017897
 31
0.0
  0
LINE
  5
9342
330
2
100
AcDbEntity
  8
0
100
AcDbLine
 10
188.6404432104455
 20
5334.944179017897
 30
0.0
 11
188.6404432104455
 21
5337.124179017897
 31
0.0
  0
LINE
  5
9343
330
2
100
AcDbEntity
  8
0
100
AcDbLine
 10
232.1404432104455
 20
5334.944179017897
 30
0.0
 11
232.1404432104455
 21
5337.124179017897
 31
0.0
  0
LINE
  5
9344
330
2
100
AcDbEntity
  8
0
100
AcDbLine
 10
214.3904432104455
 20
5334.944179017897
 30
0.0
 11
214.3904432104455
 21
5337.124179017897
 31
0.0
  0
LINE
  5
9345
330
2
100
AcDbEntity
  8
0
100
AcDbLine
 10
214.3904432104455
 20
5323.194179017897
 30
0.0
 11
214.3904432104455
 21
5321.014179017897
 31
0.0
  0
LINE
  5
9346
330
2
100
AcDbEntity
  8
0
100
AcDbLine
 10
232.1404432104455
 20
5323.194179017897
 30
0.0
 11
232.1404432104455
 21
5321.014179017897
 31
0.0
  0
LINE
  5
9347
330
2
100
AcDbEntity
  8
0
100
AcDbLine
 10
279.6404432104455
 20
5334.944179017897
 30
0.0
 11
279.6404432104455
 21
5337.124179017897
 31
0.0
  0
LINE
  5
9348
330
2
100
AcDbEntity
  8
0
100
AcDbLine
 10
257.8904432104455
 20
5334.944179017897
 30
0.0
 11
257.8904432104455
 21
5337.124179017897
 31
0.0
  0
LINE
  5
9349
330
2
100
AcDbEntity
  8
0
100
AcDbLine
 10
257.8904432104455
 20
5323.194179017897
 30
0.0
 11
257.8904432104455
 21
5321.014179017897
 31
0.0
  0
LINE
  5
934A
330
2
100
AcDbEntity
  8
0
100
AcDbLine
 10
279.6404432104455
 20
5323.194179017897
 30
0.0
 11
279.6404432104455
 21
5321.014179017897
 31
0.0
  0
LINE
  5
934B
330
2
100
AcDbEntity
  8
0
100
AcDbLine
 10
329.1404432104455
 20
5334.944179017897
 30
0.0
 11
329.1404432104455
 21
5337.124179017897
 31
0.0
  0
LINE
  5
934C
330
2
100
AcDbEntity
  8
0
100
AcDbLine
 10
305.3904432104455
 20
5334.944179017897
 30
0.0
 11
305.3904432104455
 21
5337.124179017897
 31
0.0
  0
LINE
  5
934D
330
2
100
AcDbEntity
  8
0
100
AcDbLine
 10
305.3904432104455
 20
5323.194179017897
 30
0.0
 11
305.3904432104455
 21
5321.014179017897
 31
0.0
  0
LINE
  5
934E
330
2
100
AcDbEntity
  8
0
100
AcDbLine
 10
329.1404432104455
 20
5323.194179017897
 30
0.0
 11
329.1404432104455
 21
5321.014179017897
 31
0.0
  0
LINE
  5
934F
330
2
100
AcDbEntity
  8
0
100
AcDbLine
 10
354.8904432104455
 20
5323.194179017897
 30
0.0
 11
354.8904432104455
 21
5321.014179017897
 31
0.0
  0
LINE
  5
9350
330
2
100
AcDbEntity
  8
0
100
AcDbLine
 10
380.6404432104455
 20
5323.194179017897
 30
0.0
 11
380.6404432104455
 21
5321.014179017897
 31
0.0
  0
LINE
  5
9351
330
2
100
AcDbEntity
  8
0
100
AcDbLine
 10
380.6404432104455
 20
5334.944179017897
 30
0.0
 11
380.6404432104455
 21
5337.124179017897
 31
0.0
  0
LINE
  5
9352
330
2
100
AcDbEntity
  8
0
100
AcDbLine
 10
354.8904432104455
 20
5334.944179017897
 30
0.0
 11
354.8904432104455
 21
5337.124179017897
 31
0.0
  0
LINE
  5
9353
330
2
100
AcDbEntity
  8
0
100
AcDbLine
 10
436.1404432104455
 20
5334.944179017897
 30
0.0
 11
436.1404432104455
 21
5337.124179017897
 31
0.0
  0
LINE
  5
9354
330
2
100
AcDbEntity
  8
0
100
AcDbLine
 10
406.3904432104455
 20
5334.944179017897
 30
0.0
 11
406.3904432104455
 21
5337.124179017897
 31
0.0
  0
LINE
  5
9355
330
2
100
AcDbEntity
  8
0
100
AcDbLine
 10
406.3904432104455
 20
5323.194179017897
 30
0.0
 11
406.3904432104455
 21
5321.014179017897
 31
0.0
  0
LINE
  5
9356
330
2
100
AcDbEntity
  8
0
100
AcDbLine
 10
436.1404432104455
 20
5323.194179017897
 30
0.0
 11
436.1404432104455
 21
5321.014179017897
 31
0.0
  0
LINE
  5
9357
330
2
100
AcDbEntity
  8
0
100
AcDbLine
 10
497.6404432104455
 20
5334.944179017897
 30
0.0
 11
497.6404432104455
 21
5337.124179017897
 31
0.0
  0
LINE
  5
9358
330
2
100
AcDbEntity
  8
0
100
AcDbLine
 10
461.8904432104455
 20
5334.944179017897
 30
0.0
 11
461.8904432104455
 21
5337.124179017897
 31
0.0
  0
LINE
  5
9359
330
2
100
AcDbEntity
  8
0
100
AcDbLine
 10
461.8904432104455
 20
5323.194179017897
 30
0.0
 11
461.8904432104455
 21
5321.014179017897
 31
0.0
  0
LINE
  5
935A
330
2
100
AcDbEntity
  8
0
100
AcDbLine
 10
497.6404432104455
 20
5323.194179017897
 30
0.0
 11
497.6404432104455
 21
5321.014179017897
 31
0.0
  0
LINE
  5
935B
330
2
100
AcDbEntity
  8
0
100
AcDbLine
 10
268.7654432104455
 20
5299.444179017897
 30
0.0
 11
268.7654432104455
 21
5285.694179017897
 31
0.0
  0
LWPOLYLINE
  5
935C
330
2
100
AcDbEntity
  8
0
100
AcDbPolyline
 90
        4
 70
     1
 43
0.0
 10
282.5154432104455
 20
5302.319179017897
 10
282.5154432104455
 20
5282.819179017897
 10
255.0154432104455
 20
5282.819179017897
 10
255.0154432104455
 20
5302.319179017897
  0
LWPOLYLINE
  5
935D
330
2
100
AcDbEntity
  8
0
100
AcDbPolyline
 90
        4
 70
     1
 43
0.0
 10
279.6404432104455
 20
5299.444179017897
 10
279.6404432104455
 20
5285.694179017897
 10
257.8904432104455
 20
5285.694179017897
 10
257.8904432104455
 20
5299.444179017897
  0
LWPOLYLINE
  5
935E
330
2
100
AcDbEntity
  8
0
100
AcDbPolyline
 90
        4
 70
     1
 43
0.0
 10
281.8204432104458
 20
5301.624179017897
 10
281.8204432104458
 20
5283.514179017897
 10
255.7104432104452
 20
5283.514179017897
 10
255.7104432104452
 20
5301.624179017897
  0
LINE
  5
935F
330
2
100
AcDbEntity
  8
0
100
AcDbLine
 10
317.2654432104455
 20
5299.444179017897
 30
0.0
 11
317.2654432104455
 21
5285.694179017897
 31
0.0
  0
LINE
  5
9360
330
2
100
AcDbEntity
  8
0
100
AcDbLine
 10
223.2654432104455
 20
5299.444179017897
 30
0.0
 11
223.2654432104455
 21
5285.694179017897
 31
0.0
  0
LWPOLYLINE
  5
9361
330
2
100
AcDbEntity
  8
0
100
AcDbPolyline
 90
        4
 70
     1
 43
0.0
 10
152.0154432104455
 20
5302.319179017897
 10
152.0154432104455
 20
5282.819179017897
 10
134.5154432104455
 20
5282.819179017897
 10
134.5154432104455
 20
5302.319179017897
  0
LWPOLYLINE
  5
9362
330
2
100
AcDbEntity
  8
0
100
AcDbPolyline
 90
        4
 70
     1
 43
0.0
 10
149.1404432104455
 20
5299.444179017897
 10
149.1404432104455
 20
5285.694179017897
 10
137.3904432104455
 20
5285.694179017897
 10
137.3904432104455
 20
5299.444179017897
  0
LWPOLYLINE
  5
9363
330
2
100
AcDbEntity
  8
0
100
AcDbPolyline
 90
        4
 70
     1
 43
0.0
 10
151.3204432104458
 20
5301.624179017897
 10
151.3204432104458
 20
5283.514179017897
 10
135.2104432104452
 20
5283.514179017897
 10
135.2104432104452
 20
5301.624179017897
  0
LINE
  5
9364
330
2
100
AcDbEntity
  8
0
100
AcDbLine
 10
143.2654432104455
 20
5299.444179017897
 30
0.0
 11
143.2654432104455
 21
5285.694179017897
 31
0.0
  0
LWPOLYLINE
  5
9365
330
2
100
AcDbEntity
  8
0
100
AcDbPolyline
 90
        4
 70
     1
 43
0.0
 10
235.0154432104455
 20
5302.319179017897
 10
235.0154432104455
 20
5282.819179017897
 10
211.5154432104455
 20
5282.819179017897
 10
211.5154432104455
 20
5302.319179017897
  0
LWPOLYLINE
  5
9366
330
2
100
AcDbEntity
  8
0
100
AcDbPolyline
 90
        4
 70
     1
 43
0.0
 10
232.1404432104455
 20
5299.444179017897
 10
232.1404432104455
 20
5285.694179017897
 10
214.3904432104455
 20
5285.694179017897
 10
214.3904432104455
 20
5299.444179017897
  0
LWPOLYLINE
  5
9367
330
2
100
AcDbEntity
  8
0
100
AcDbPolyline
 90
        4
 70
     1
 43
0.0
 10
234.3204432104458
 20
5301.624179017897
 10
234.3204432104458
 20
5283.514179017897
 10
212.2104432104452
 20
5283.514179017897
 10
212.2104432104452
 20
5301.624179017897
  0
LWPOLYLINE
  5
9368
330
2
100
AcDbEntity
  8
0
100
AcDbPolyline
 90
        4
 70
     1
 43
0.0
 10
332.0154432104455
 20
5302.319179017897
 10
332.0154432104455
 20
5282.819179017897
 10
302.5154432104455
 20
5282.819179017897
 10
302.5154432104455
 20
5302.319179017897
  0
LWPOLYLINE
  5
9369
330
2
100
AcDbEntity
  8
0
100
AcDbPolyline
 90
        4
 70
     1
 43
0.0
 10
329.1404432104455
 20
5299.444179017897
 10
329.1404432104455
 20
5285.694179017897
 10
305.3904432104455
 20
5285.694179017897
 10
305.3904432104455
 20
5299.444179017897
  0
LWPOLYLINE
  5
936A
330
2
100
AcDbEntity
  8
0
100
AcDbPolyline
 90
        4
 70
     1
 43
0.0
 10
331.3204432104458
 20
5301.624179017897
 10
331.3204432104458
 20
5283.514179017897
 10
303.2104432104452
 20
5283.514179017897
 10
303.2104432104452
 20
5301.624179017897
  0
TEXT
  5
936B
330
2
100
AcDbEntity
  8
0
100
AcDbText
 10
133.9421144246338
 20
5273.16776793837
 30
0.0
 40
6.0
  1
1618
  7
ARIAL
 72
     1
 11
143.2654432104455
 21
5273.16776793837
 31
0.0
100
AcDbText
  0
LINE
  5
936C
330
2
100
AcDbEntity
  8
0
100
AcDbLine
 10
135.2104432104461
 20
5283.514179017897
 30
0.0
 11
134.5154432104455
 21
5282.819179017897
 31
0.0
  0
LINE
  5
936D
330
2
100
AcDbEntity
  8
0
100
AcDbLine
 10
234.3204432104449
 20
5283.514179017897
 30
0.0
 11
235.0154432104455
 21
5282.819179017897
 31
0.0
  0
LINE
  5
936E
330
2
100
AcDbEntity
  8
0
100
AcDbLine
 10
212.2104432104461
 20
5283.514179017897
 30
0.0
 11
211.5154432104455
 21
5282.819179017897
 31
0.0
  0
LINE
  5
936F
330
2
100
AcDbEntity
  8
0
100
AcDbLine
 10
151.3204432104449
 20
5283.514179017897
 30
0.0
 11
152.0154432104455
 21
5282.819179017897
 31
0.0
  0
TEXT
  5
9370
330
2
100
AcDbEntity
  8
0
100
AcDbText
 10
213.9421144246338
 20
5273.16776793837
 30
0.0
 40
6.0
  1
2018
  7
ARIAL
 72
     1
 11
223.2654432104455
 21
5273.16776793837
 31
0.0
100
AcDbText
  0
TEXT
  5
9371
330
2
100
AcDbEntity
  8
0
100
AcDbText
 10
259.4421144246338
 20
5273.16776793837
 30
0.0
 40
6.0
  1
2418
  7
ARIAL
 72
     1
 11
268.7654432104455
 21
5273.16776793837
 31
0.0
100
AcDbText
  0
LINE
  5
9372
330
2
100
AcDbEntity
  8
0
100
AcDbLine
 10
255.7104432104461
 20
5283.514179017897
 30
0.0
 11
255.0154432104455
 21
5282.819179017897
 31
0.0
  0
LINE
  5
9373
330
2
100
AcDbEntity
  8
0
100
AcDbLine
 10
281.8204432104449
 20
5283.514179017897
 30
0.0
 11
282.5154432104455
 21
5282.819179017897
 31
0.0
  0
LINE
  5
9374
330
2
100
AcDbEntity
  8
0
100
AcDbLine
 10
331.3204432104449
 20
5283.514179017897
 30
0.0
 11
332.0154432104455
 21
5282.819179017897
 31
0.0
  0
LINE
  5
9375
330
2
100
AcDbEntity
  8
0
100
AcDbLine
 10
303.2104432104461
 20
5283.514179017897
 30
0.0
 11
302.5154432104455
 21
5282.819179017897
 31
0.0
  0
TEXT
  5
9376
330
2
100
AcDbEntity
  8
0
100
AcDbText
 10
307.9421144246338
 20
5273.16776793837
 30
0.0
 40
6.0
  1
2618
  7
ARIAL
 72
     1
 11
317.2654432104455
 21
5273.16776793837
 31
0.0
100
AcDbText
  0
LINE
  5
9377
330
2
100
AcDbEntity
  8
0
100
AcDbLine
 10
134.5154432104455
 20
5302.319179017897
 30
0.0
 11
135.2104432104452
 21
5301.624179017896
 31
0.0
  0
LINE
  5
9378
330
2
100
AcDbEntity
  8
0
100
AcDbLine
 10
234.3204432104449
 20
5301.624179017896
 30
0.0
 11
235.0154432104455
 21
5302.319179017897
 31
0.0
  0
LINE
  5
9379
330
2
100
AcDbEntity
  8
0
100
AcDbLine
 10
211.5154432104455
 20
5302.319179017897
 30
0.0
 11
212.2104432104452
 21
5301.624179017896
 31
0.0
  0
LINE
  5
937A
330
2
100
AcDbEntity
  8
0
100
AcDbLine
 10
151.3204432104449
 20
5301.624179017896
 30
0.0
 11
152.0154432104455
 21
5302.319179017897
 31
0.0
  0
LINE
  5
937B
330
2
100
AcDbEntity
  8
0
100
AcDbLine
 10
281.8204432104449
 20
5301.624179017896
 30
0.0
 11
282.5154432104455
 21
5302.319179017897
 31
0.0
  0
LINE
  5
937C
330
2
100
AcDbEntity
  8
0
100
AcDbLine
 10
255.0154432104455
 20
5302.319179017897
 30
0.0
 11
255.7104432104452
 21
5301.624179017896
 31
0.0
  0
LINE
  5
937D
330
2
100
AcDbEntity
  8
0
100
AcDbLine
 10
331.3204432104449
 20
5301.624179017896
 30
0.0
 11
332.0154432104455
 21
5302.319179017897
 31
0.0
  0
LINE
  5
937E
330
2
100
AcDbEntity
  8
0
100
AcDbLine
 10
302.5154432104455
 20
5302.319179017897
 30
0.0
 11
303.2104432104452
 21
5301.624179017896
 31
0.0
  0
LINE
  5
937F
330
2
100
AcDbEntity
  8
0
100
AcDbLine
 10
416.307043210445
 20
5299.444179017897
 30
0.0
 11
416.307043210445
 21
5285.694179017897
 31
0.0
  0
LINE
  5
9380
330
2
100
AcDbEntity
  8
0
100
AcDbLine
 10
426.223843210445
 20
5299.444179017897
 30
0.0
 11
426.223843210445
 21
5285.694179017897
 31
0.0
  0
LINE
  5
9381
330
2
100
AcDbEntity
  8
0
100
AcDbLine
 10
372.0571432104452
 20
5299.444179017897
 30
0.0
 11
372.0571432104452
 21
5285.694179017897
 31
0.0
  0
LINE
  5
9382
330
2
100
AcDbEntity
  8
0
100
AcDbLine
 10
363.4737432104457
 20
5299.444179017897
 30
0.0
 11
363.4737432104457
 21
5285.694179017897
 31
0.0
  0
LWPOLYLINE
  5
9383
330
2
100
AcDbEntity
  8
0
100
AcDbPolyline
 90
        4
 70
     1
 43
0.0
 10
383.5154432104455
 20
5302.319179017897
 10
383.5154432104455
 20
5282.819179017897
 10
352.0154432104455
 20
5282.819179017897
 10
352.0154432104455
 20
5302.319179017897
  0
LWPOLYLINE
  5
9384
330
2
100
AcDbEntity
  8
0
100
AcDbPolyline
 90
        4
 70
     1
 43
0.0
 10
380.6404432104455
 20
5299.444179017897
 10
380.6404432104455
 20
5285.694179017897
 10
354.8904432104455
 20
5285.694179017897
 10
354.8904432104455
 20
5299.444179017897
  0
LWPOLYLINE
  5
9385
330
2
100
AcDbEntity
  8
0
100
AcDbPolyline
 90
        4
 70
     1
 43
0.0
 10
382.8204432104458
 20
5301.624179017897
 10
382.8204432104458
 20
5283.514179017897
 10
352.7104432104452
 20
5283.514179017897
 10
352.7104432104452
 20
5301.624179017897
  0
LWPOLYLINE
  5
9386
330
2
100
AcDbEntity
  8
0
100
AcDbPolyline
 90
        4
 70
     1
 43
0.0
 10
439.0154432104455
 20
5302.319179017897
 10
439.0154432104455
 20
5282.819179017897
 10
403.5154432104455
 20
5282.819179017897
 10
403.5154432104455
 20
5302.319179017897
  0
LWPOLYLINE
  5
9387
330
2
100
AcDbEntity
  8
0
100
AcDbPolyline
 90
        4
 70
     1
 43
0.0
 10
436.1404432104455
 20
5299.444179017897
 10
436.1404432104455
 20
5285.694179017897
 10
406.3904432104455
 20
5285.694179017897
 10
406.3904432104455
 20
5299.444179017897
  0
LWPOLYLINE
  5
9388
330
2
100
AcDbEntity
  8
0
100
AcDbPolyline
 90
        4
 70
     1
 43
0.0
 10
438.3204432104458
 20
5301.624179017897
 10
438.3204432104458
 20
5283.514179017897
 10
404.2104432104452
 20
5283.514179017897
 10
404.2104432104452
 20
5301.624179017897
  0
LINE
  5
9389
330
2
100
AcDbEntity
  8
0
100
AcDbLine
 10
382.8204432104449
 20
5283.514179017897
 30
0.0
 11
383.5154432104455
 21
5282.819179017897
 31
0.0
  0
LINE
  5
938A
330
2
100
AcDbEntity
  8
0
100
AcDbLine
 10
352.7104432104461
 20
5283.514179017897
 30
0.0
 11
352.0154432104455
 21
5282.819179017897
 31
0.0
  0
TEXT
  5
938B
330
2
100
AcDbEntity
  8
0
100
AcDbText
 10
358.4421144246338
 20
5273.16776793837
 30
0.0
 40
6.0
  1
2818
  7
ARIAL
 72
     1
 11
367.7654432104455
 21
5273.16776793837
 31
0.0
100
AcDbText
  0
LINE
  5
938C
330
2
100
AcDbEntity
  8
0
100
AcDbLine
 10
438.3204432104449
 20
5283.514179017897
 30
0.0
 11
439.0154432104455
 21
5282.819179017897
 31
0.0
  0
TEXT
  5
938D
330
2
100
AcDbEntity
  8
0
100
AcDbText
 10
411.9421144246338
 20
5273.16776793837
 30
0.0
 40
6.0
  1
3018
  7
ARIAL
 72
     1
 11
421.2654432104455
 21
5273.16776793837
 31
0.0
100
AcDbText
  0
LINE
  5
938E
330
2
100
AcDbEntity
  8
0
100
AcDbLine
 10
404.2104432104461
 20
5283.514179017897
 30
0.0
 11
403.5154432104455
 21
5282.819179017897
 31
0.0
  0
LINE
  5
938F
330
2
100
AcDbEntity
  8
0
100
AcDbLine
 10
382.8204432104449
 20
5301.624179017896
 30
0.0
 11
383.5154432104455
 21
5302.319179017897
 31
0.0
  0
LINE
  5
9390
330
2
100
AcDbEntity
  8
0
100
AcDbLine
 10
352.0154432104455
 20
5302.319179017897
 30
0.0
 11
352.7104432104452
 21
5301.624179017896
 31
0.0
  0
LINE
  5
9391
330
2
100
AcDbEntity
  8
0
100
AcDbLine
 10
438.3204432104449
 20
5301.624179017896
 30
0.0
 11
439.0154432104455
 21
5302.319179017897
 31
0.0
  0
LINE
  5
9392
330
2
100
AcDbEntity
  8
0
100
AcDbLine
 10
403.5154432104455
 20
5302.319179017897
 30
0.0
 11
404.2104432104452
 21
5301.624179017896
 31
0.0
  0
LWPOLYLINE
  5
9393
330
2
100
AcDbEntity
  8
0
100
AcDbPolyline
 90
        4
 70
     1
 43
0.0
 10
191.5154432104455
 20
5302.319179017897
 10
191.5154432104455
 20
5282.819179017897
 10
172.0154432104455
 20
5282.819179017897
 10
172.0154432104455
 20
5302.319179017897
  0
LWPOLYLINE
  5
9394
330
2
100
AcDbEntity
  8
0
100
AcDbPolyline
 90
        4
 70
     1
 43
0.0
 10
188.6404432104455
 20
5299.444179017897
 10
188.6404432104455
 20
5285.694179017897
 10
174.8904432104455
 20
5285.694179017897
 10
174.8904432104455
 20
5299.444179017897
  0
LWPOLYLINE
  5
9395
330
2
100
AcDbEntity
  8
0
100
AcDbPolyline
 90
        4
 70
     1
 43
0.0
 10
190.8204432104458
 20
5301.624179017897
 10
190.8204432104458
 20
5283.514179017897
 10
172.7104432104452
 20
5283.514179017897
 10
172.7104432104452
 20
5301.624179017897
  0
LINE
  5
9396
330
2
100
AcDbEntity
  8
0
100
AcDbLine
 10
181.7654432104455
 20
5299.444179017897
 30
0.0
 11
181.7654432104455
 21
5285.694179017897
 31
0.0
  0
TEXT
  5
9397
330
2
100
AcDbEntity
  8
0
100
AcDbText
 10
172.4421144246338
 20
5273.16776793837
 30
0.0
 40
6.0
  1
1818
  7
ARIAL
 72
     1
 11
181.7654432104455
 21
5273.16776793837
 31
0.0
100
AcDbText
  0
LINE
  5
9398
330
2
100
AcDbEntity
  8
0
100
AcDbLine
 10
172.7104432104461
 20
5283.514179017897
 30
0.0
 11
172.0154432104455
 21
5282.819179017897
 31
0.0
  0
LINE
  5
9399
330
2
100
AcDbEntity
  8
0
100
AcDbLine
 10
190.8204432104449
 20
5283.514179017897
 30
0.0
 11
191.5154432104455
 21
5282.819179017897
 31
0.0
  0
LINE
  5
939A
330
2
100
AcDbEntity
  8
0
100
AcDbLine
 10
172.0154432104455
 20
5302.319179017897
 30
0.0
 11
172.7104432104452
 21
5301.624179017896
 31
0.0
  0
LINE
  5
939B
330
2
100
AcDbEntity
  8
0
100
AcDbLine
 10
190.8204432104449
 20
5301.624179017896
 30
0.0
 11
191.5154432104455
 21
5302.319179017897
 31
0.0
  0
LINE
  5
939C
330
2
100
AcDbEntity
  8
0
100
AcDbLine
 10
470.8279432104455
 20
5299.444179017897
 30
0.0
 11
470.8279432104455
 21
5285.694179017897
 31
0.0
  0
LINE
  5
939D
330
2
100
AcDbEntity
  8
0
100
AcDbLine
 10
488.7029432104455
 20
5299.444179017897
 30
0.0
 11
488.7029432104455
 21
5285.694179017897
 31
0.0
  0
LWPOLYLINE
  5
939E
330
2
100
AcDbEntity
  8
0
100
AcDbPolyline
 90
        4
 70
     1
 43
0.0
 10
500.5154432104455
 20
5302.319179017897
 10
500.5154432104455
 20
5282.819179017897
 10
459.0154432104455
 20
5282.819179017897
 10
459.0154432104455
 20
5302.319179017897
  0
LWPOLYLINE
  5
939F
330
2
100
AcDbEntity
  8
0
100
AcDbPolyline
 90
        4
 70
     1
 43
0.0
 10
497.6404432104455
 20
5299.444179017897
 10
497.6404432104455
 20
5285.694179017897
 10
461.8904432104455
 20
5285.694179017897
 10
461.8904432104455
 20
5299.444179017897
  0
LWPOLYLINE
  5
93A0
330
2
100
AcDbEntity
  8
0
100
AcDbPolyline
 90
        4
 70
     1
 43
0.0
 10
499.8204432104458
 20
5301.624179017897
 10
499.8204432104458
 20
5283.514179017897
 10
459.7104432104452
 20
5283.514179017897
 10
459.7104432104452
 20
5301.624179017897
  0
LINE
  5
93A1
330
2
100
AcDbEntity
  8
0
100
AcDbLine
 10
499.8204432104449
 20
5283.514179017897
 30
0.0
 11
500.5154432104455
 21
5282.819179017897
 31
0.0
  0
TEXT
  5
93A2
330
2
100
AcDbEntity
  8
0
100
AcDbText
 10
470.4421144246338
 20
5273.16776793837
 30
0.0
 40
6.0
  1
3618
  7
ARIAL
 72
     1
 11
479.7654432104455
 21
5273.16776793837
 31
0.0
100
AcDbText
  0
LINE
  5
93A3
330
2
100
AcDbEntity
  8
0
100
AcDbLine
 10
459.7104432104461
 20
5283.514179017897
 30
0.0
 11
459.0154432104455
 21
5282.819179017897
 31
0.0
  0
LINE
  5
93A4
330
2
100
AcDbEntity
  8
0
100
AcDbLine
 10
499.8204432104449
 20
5301.624179017896
 30
0.0
 11
500.5154432104455
 21
5302.319179017897
 31
0.0
  0
LINE
  5
93A5
330
2
100
AcDbEntity
  8
0
100
AcDbLine
 10
459.0154432104455
 20
5302.319179017897
 30
0.0
 11
459.7104432104452
 21
5301.624179017896
 31
0.0
  0
LINE
  5
93A6
330
2
100
AcDbEntity
  8
0
100
AcDbLine
 10
479.7654432104455
 20
5299.444179017897
 30
0.0
 11
479.7654432104455
 21
5285.694179017897
 31
0.0
  0
LINE
  5
93A7
330
2
100
AcDbEntity
  8
0
100
AcDbLine
 10
149.1404432104455
 20
5285.694179017897
 30
0.0
 11
149.1404432104455
 21
5283.514179017897
 31
0.0
  0
LINE
  5
93A8
330
2
100
AcDbEntity
  8
0
100
AcDbLine
 10
137.3904432104455
 20
5285.694179017897
 30
0.0
 11
137.3904432104455
 21
5283.514179017897
 31
0.0
  0
LINE
  5
93A9
330
2
100
AcDbEntity
  8
0
100
AcDbLine
 10
137.3904432104455
 20
5299.444179017897
 30
0.0
 11
137.3904432104455
 21
5301.624179017897
 31
0.0
  0
LINE
  5
93AA
330
2
100
AcDbEntity
  8
0
100
AcDbLine
 10
149.1404432104455
 20
5299.444179017897
 30
0.0
 11
149.1404432104455
 21
5301.624179017897
 31
0.0
  0
LINE
  5
93AB
330
2
100
AcDbEntity
  8
0
100
AcDbLine
 10
188.6404432104455
 20
5285.694179017897
 30
0.0
 11
188.6404432104455
 21
5283.514179017897
 31
0.0
  0
LINE
  5
93AC
330
2
100
AcDbEntity
  8
0
100
AcDbLine
 10
174.8904432104455
 20
5285.694179017897
 30
0.0
 11
174.8904432104455
 21
5283.514179017897
 31
0.0
  0
LINE
  5
93AD
330
2
100
AcDbEntity
  8
0
100
AcDbLine
 10
174.8904432104455
 20
5299.444179017897
 30
0.0
 11
174.8904432104455
 21
5301.624179017897
 31
0.0
  0
LINE
  5
93AE
330
2
100
AcDbEntity
  8
0
100
AcDbLine
 10
188.6404432104455
 20
5299.444179017897
 30
0.0
 11
188.6404432104455
 21
5301.624179017897
 31
0.0
  0
LINE
  5
93AF
330
2
100
AcDbEntity
  8
0
100
AcDbLine
 10
232.1404432104455
 20
5299.444179017897
 30
0.0
 11
232.1404432104455
 21
5301.624179017897
 31
0.0
  0
LINE
  5
93B0
330
2
100
AcDbEntity
  8
0
100
AcDbLine
 10
214.3904432104455
 20
5299.444179017897
 30
0.0
 11
214.3904432104455
 21
5301.624179017897
 31
0.0
  0
LINE
  5
93B1
330
2
100
AcDbEntity
  8
0
100
AcDbLine
 10
214.3904432104455
 20
5285.694179017897
 30
0.0
 11
214.3904432104455
 21
5283.514179017897
 31
0.0
  0
LINE
  5
93B2
330
2
100
AcDbEntity
  8
0
100
AcDbLine
 10
232.1404432104455
 20
5285.694179017897
 30
0.0
 11
232.1404432104455
 21
5283.514179017897
 31
0.0
  0
LINE
  5
93B3
330
2
100
AcDbEntity
  8
0
100
AcDbLine
 10
279.6404432104455
 20
5299.444179017897
 30
0.0
 11
279.6404432104455
 21
5301.624179017897
 31
0.0
  0
LINE
  5
93B4
330
2
100
AcDbEntity
  8
0
100
AcDbLine
 10
257.8904432104455
 20
5299.444179017897
 30
0.0
 11
257.8904432104455
 21
5301.624179017897
 31
0.0
  0
LINE
  5
93B5
330
2
100
AcDbEntity
  8
0
100
AcDbLine
 10
257.8904432104455
 20
5285.694179017897
 30
0.0
 11
257.8904432104455
 21
5283.514179017897
 31
0.0
  0
LINE
  5
93B6
330
2
100
AcDbEntity
  8
0
100
AcDbLine
 10
279.6404432104455
 20
5285.694179017897
 30
0.0
 11
279.6404432104455
 21
5283.514179017897
 31
0.0
  0
LINE
  5
93B7
330
2
100
AcDbEntity
  8
0
100
AcDbLine
 10
329.1404432104455
 20
5299.444179017897
 30
0.0
 11
329.1404432104455
 21
5301.624179017897
 31
0.0
  0
LINE
  5
93B8
330
2
100
AcDbEntity
  8
0
100
AcDbLine
 10
305.3904432104455
 20
5299.444179017897
 30
0.0
 11
305.3904432104455
 21
5301.624179017897
 31
0.0
  0
LINE
  5
93B9
330
2
100
AcDbEntity
  8
0
100
AcDbLine
 10
305.3904432104455
 20
5285.694179017897
 30
0.0
 11
305.3904432104455
 21
5283.514179017897
 31
0.0
  0
LINE
  5
93BA
330
2
100
AcDbEntity
  8
0
100
AcDbLine
 10
329.1404432104455
 20
5285.694179017897
 30
0.0
 11
329.1404432104455
 21
5283.514179017897
 31
0.0
  0
LINE
  5
93BB
330
2
100
AcDbEntity
  8
0
100
AcDbLine
 10
354.8904432104455
 20
5285.694179017897
 30
0.0
 11
354.8904432104455
 21
5283.514179017897
 31
0.0
  0
LINE
  5
93BC
330
2
100
AcDbEntity
  8
0
100
AcDbLine
 10
380.6404432104455
 20
5285.694179017897
 30
0.0
 11
380.6404432104455
 21
5283.514179017897
 31
0.0
  0
LINE
  5
93BD
330
2
100
AcDbEntity
  8
0
100
AcDbLine
 10
380.6404432104455
 20
5299.444179017897
 30
0.0
 11
380.6404432104455
 21
5301.624179017897
 31
0.0
  0
LINE
  5
93BE
330
2
100
AcDbEntity
  8
0
100
AcDbLine
 10
354.8904432104455
 20
5299.444179017897
 30
0.0
 11
354.8904432104455
 21
5301.624179017897
 31
0.0
  0
LINE
  5
93BF
330
2
100
AcDbEntity
  8
0
100
AcDbLine
 10
436.1404432104455
 20
5299.444179017897
 30
0.0
 11
436.1404432104455
 21
5301.624179017897
 31
0.0
  0
LINE
  5
93C0
330
2
100
AcDbEntity
  8
0
100
AcDbLine
 10
406.3904432104455
 20
5299.444179017897
 30
0.0
 11
406.3904432104455
 21
5301.624179017897
 31
0.0
  0
LINE
  5
93C1
330
2
100
AcDbEntity
  8
0
100
AcDbLine
 10
406.3904432104455
 20
5285.694179017897
 30
0.0
 11
406.3904432104455
 21
5283.514179017897
 31
0.0
  0
LINE
  5
93C2
330
2
100
AcDbEntity
  8
0
100
AcDbLine
 10
436.1404432104455
 20
5285.694179017897
 30
0.0
 11
436.1404432104455
 21
5283.514179017897
 31
0.0
  0
LINE
  5
93C3
330
2
100
AcDbEntity
  8
0
100
AcDbLine
 10
497.6404432104455
 20
5299.444179017897
 30
0.0
 11
497.6404432104455
 21
5301.624179017897
 31
0.0
  0
LINE
  5
93C4
330
2
100
AcDbEntity
  8
0
100
AcDbLine
 10
461.8904432104455
 20
5299.444179017897
 30
0.0
 11
461.8904432104455
 21
5301.624179017897
 31
0.0
  0
LINE
  5
93C5
330
2
100
AcDbEntity
  8
0
100
AcDbLine
 10
461.8904432104455
 20
5285.694179017897
 30
0.0
 11
461.8904432104455
 21
5283.514179017897
 31
0.0
  0
LINE
  5
93C6
330
2
100
AcDbEntity
  8
0
100
AcDbLine
 10
497.6404432104455
 20
5285.694179017897
 30
0.0
 11
497.6404432104455
 21
5283.514179017897
 31
0.0
  0
TEXT
  5
93C7
330
2
100
AcDbEntity
  8
0
100
AcDbText
 10
534.9421144246337
 20
5130.667767938372
 30
0.0
 40
6.0
  1
4030
  7
ARIAL
 72
     1
 11
544.2654432104455
 21
5130.667767938372
 31
0.0
100
AcDbText
  0
TEXT
  5
93C8
330
2
100
AcDbEntity
  8
0
100
AcDbText
 10
534.9421144246337
 20
5184.167767938372
 30
0.0
 40
6.0
  1
4026
  7
ARIAL
 72
     1
 11
544.2654432104455
 21
5184.167767938372
 31
0.0
100
AcDbText
  0
TEXT
  5
93C9
330
2
100
AcDbEntity
  8
0
100
AcDbText
 10
534.9421144246337
 20
5231.667767938372
 30
0.0
 40
6.0
  1
4020
  7
ARIAL
 72
     1
 11
544.2654432104455
 21
5231.667767938372
 31
0.0
100
AcDbText
  0
LINE
  5
93CA
330
2
100
AcDbEntity
  8
0
100
AcDbLine
 10
533.8279432104455
 20
5172.944179017897
 30
0.0
 11
533.8279432104455
 21
5143.194179017897
 31
0.0
  0
LINE
  5
93CB
330
2
100
AcDbEntity
  8
0
100
AcDbLine
 10
554.7029432104455
 20
5172.944179017897
 30
0.0
 11
554.7029432104455
 21
5143.194179017897
 31
0.0
  0
LWPOLYLINE
  5
93CC
330
2
100
AcDbEntity
  8
0
100
AcDbPolyline
 90
        4
 70
     1
 43
0.0
 10
568.0154432104455
 20
5175.819179017897
 10
568.0154432104455
 20
5140.319179017897
 10
520.5154432104455
 20
5140.319179017897
 10
520.5154432104455
 20
5175.819179017897
  0
LWPOLYLINE
  5
93CD
330
2
100
AcDbEntity
  8
0
100
AcDbPolyline
 90
        4
 70
     1
 43
0.0
 10
565.1404432104455
 20
5172.944179017897
 10
565.1404432104455
 20
5143.194179017897
 10
523.3904432104455
 20
5143.194179017897
 10
523.3904432104455
 20
5172.944179017897
  0
LWPOLYLINE
  5
93CE
330
2
100
AcDbEntity
  8
0
100
AcDbPolyline
 90
        4
 70
     1
 43
0.0
 10
567.3204432104458
 20
5175.124179017897
 10
567.3204432104458
 20
5141.014179017897
 10
521.2104432104452
 20
5141.014179017897
 10
521.2104432104452
 20
5175.124179017897
  0
LINE
  5
93CF
330
2
100
AcDbEntity
  8
0
100
AcDbLine
 10
567.3204432104449
 20
5141.014179017899
 30
0.0
 11
568.0154432104455
 21
5140.319179017897
 31
0.0
  0
LINE
  5
93D0
330
2
100
AcDbEntity
  8
0
100
AcDbLine
 10
521.2104432104443
 20
5141.014179017897
 30
0.0
 11
520.5154432104455
 21
5140.319179017897
 31
0.0
  0
LINE
  5
93D1
330
2
100
AcDbEntity
  8
0
100
AcDbLine
 10
523.3904432104455
 20
5163.027579017898
 30
0.0
 11
565.1404432104455
 21
5163.027579017898
 31
0.0
  0
LINE
  5
93D2
330
2
100
AcDbEntity
  8
0
100
AcDbLine
 10
567.3204432104449
 20
5175.124179017897
 30
0.0
 11
568.0154432104455
 21
5175.819179017897
 31
0.0
  0
LINE
  5
93D3
330
2
100
AcDbEntity
  8
0
100
AcDbLine
 10
520.5154432104455
 20
5175.819179017897
 30
0.0
 11
521.2104432104461
 21
5175.124179017897
 31
0.0
  0
LINE
  5
93D4
330
2
100
AcDbEntity
  8
0
100
AcDbLine
 10
523.3904432104455
 20
5153.110779017898
 30
0.0
 11
565.1404432104455
 21
5153.110779017898
 31
0.0
  0
LINE
  5
93D5
330
2
100
AcDbEntity
  8
0
100
AcDbLine
 10
544.2654432104455
 20
5172.944179017897
 30
0.0
 11
544.2654432104455
 21
5143.194179017897
 31
0.0
  0
LINE
  5
93D6
330
2
100
AcDbEntity
  8
0
100
AcDbLine
 10
600.4404432104457
 20
5261.944179017897
 30
0.0
 11
600.4404432104457
 21
5244.194179017897
 31
0.0
  0
LWPOLYLINE
  5
93D7
330
2
100
AcDbEntity
  8
0
100
AcDbPolyline
 90
        4
 70
     1
 43
0.0
 10
641.5154432104455
 20
5264.819179017897
 10
641.5154432104455
 20
5241.319179017897
 10
588.0154432104455
 20
5241.319179017897
 10
588.0154432104455
 20
5264.819179017897
  0
LWPOLYLINE
  5
93D8
330
2
100
AcDbEntity
  8
0
100
AcDbPolyline
 90
        4
 70
     1
 43
0.0
 10
638.6404432104455
 20
5261.944179017897
 10
638.6404432104455
 20
5244.194179017897
 10
590.8904432104455
 20
5244.194179017897
 10
590.8904432104455
 20
5261.944179017897
  0
LWPOLYLINE
  5
93D9
330
2
100
AcDbEntity
  8
0
100
AcDbPolyline
 90
        4
 70
     1
 43
0.0
 10
640.8204432104458
 20
5264.124179017897
 10
640.8204432104458
 20
5242.014179017897
 10
588.7104432104452
 20
5242.014179017897
 10
588.7104432104452
 20
5264.124179017897
  0
TEXT
  5
93DA
330
2
100
AcDbEntity
  8
0
100
AcDbText
 10
605.4421144246337
 20
5130.667767938372
 30
0.0
 40
6.0
  1
4630
  7
ARIAL
 72
     1
 11
614.7654432104455
 21
5130.667767938372
 31
0.0
100
AcDbText
  0
TEXT
  5
93DB
330
2
100
AcDbEntity
  8
0
100
AcDbText
 10
605.4421144246337
 20
5184.167767938372
 30
0.0
 40
6.0
  1
4626
  7
ARIAL
 72
     1
 11
614.7654432104455
 21
5184.167767938372
 31
0.0
100
AcDbText
  0
LINE
  5
93DC
330
2
100
AcDbEntity
  8
0
100
AcDbLine
 10
640.8204432104449
 20
5242.014179017899
 30
0.0
 11
641.5154432104455
 21
5241.319179017897
 31
0.0
  0
TEXT
  5
93DD
330
2
100
AcDbEntity
  8
0
100
AcDbText
 10
605.4421144246337
 20
5231.667767938372
 30
0.0
 40
6.0
  1
4620
  7
ARIAL
 72
     1
 11
614.7654432104455
 21
5231.667767938372
 31
0.0
100
AcDbText
  0
LINE
  5
93DE
330
2
100
AcDbEntity
  8
0
100
AcDbLine
 10
588.7104432104443
 20
5242.014179017897
 30
0.0
 11
588.0154432104455
 21
5241.319179017897
 31
0.0
  0
LINE
  5
93DF
330
2
100
AcDbEntity
  8
0
100
AcDbLine
 10
590.8904432104455
 20
5253.069179017897
 30
0.0
 11
638.6404432104455
 21
5253.069179017897
 31
0.0
  0
LINE
  5
93E0
330
2
100
AcDbEntity
  8
0
100
AcDbLine
 10
640.8204432104449
 20
5264.124179017897
 30
0.0
 11
641.5154432104455
 21
5264.819179017897
 31
0.0
  0
LINE
  5
93E1
330
2
100
AcDbEntity
  8
0
100
AcDbLine
 10
588.0154432104455
 20
5264.819179017897
 30
0.0
 11
588.7104432104461
 21
5264.124179017897
 31
0.0
  0
LINE
  5
93E2
330
2
100
AcDbEntity
  8
0
100
AcDbLine
 10
600.4404432104457
 20
5172.944179017897
 30
0.0
 11
600.4404432104457
 21
5143.194179017897
 31
0.0
  0
LWPOLYLINE
  5
93E3
330
2
100
AcDbEntity
  8
0
100
AcDbPolyline
 90
        4
 70
     1
 43
0.0
 10
641.5154432104455
 20
5175.819179017897
 10
641.5154432104455
 20
5140.319179017897
 10
588.0154432104455
 20
5140.319179017897
 10
588.0154432104455
 20
5175.819179017897
  0
LWPOLYLINE
  5
93E4
330
2
100
AcDbEntity
  8
0
100
AcDbPolyline
 90
        4
 70
     1
 43
0.0
 10
638.6404432104455
 20
5172.944179017897
 10
638.6404432104455
 20
5143.194179017897
 10
590.8904432104455
 20
5143.194179017897
 10
590.8904432104455
 20
5172.944179017897
  0
LWPOLYLINE
  5
93E5
330
2
100
AcDbEntity
  8
0
100
AcDbPolyline
 90
        4
 70
     1
 43
0.0
 10
640.8204432104458
 20
5175.124179017897
 10
640.8204432104458
 20
5141.014179017897
 10
588.7104432104452
 20
5141.014179017897
 10
588.7104432104452
 20
5175.124179017897
  0
LINE
  5
93E6
330
2
100
AcDbEntity
  8
0
100
AcDbLine
 10
640.8204432104449
 20
5141.014179017899
 30
0.0
 11
641.5154432104455
 21
5140.319179017897
 31
0.0
  0
LINE
  5
93E7
330
2
100
AcDbEntity
  8
0
100
AcDbLine
 10
588.7104432104443
 20
5141.014179017897
 30
0.0
 11
588.0154432104455
 21
5140.319179017897
 31
0.0
  0
LINE
  5
93E8
330
2
100
AcDbEntity
  8
0
100
AcDbLine
 10
590.8904432104455
 20
5163.027579017898
 30
0.0
 11
638.6404432104455
 21
5163.027579017898
 31
0.0
  0
LINE
  5
93E9
330
2
100
AcDbEntity
  8
0
100
AcDbLine
 10
640.8204432104449
 20
5175.124179017897
 30
0.0
 11
641.5154432104455
 21
5175.819179017897
 31
0.0
  0
LINE
  5
93EA
330
2
100
AcDbEntity
  8
0
100
AcDbLine
 10
588.0154432104455
 20
5175.819179017897
 30
0.0
 11
588.7104432104461
 21
5175.124179017897
 31
0.0
  0
LINE
  5
93EB
330
2
100
AcDbEntity
  8
0
100
AcDbLine
 10
590.8904432104455
 20
5153.110779017898
 30
0.0
 11
638.6404432104455
 21
5153.110779017898
 31
0.0
  0
LINE
  5
93EC
330
2
100
AcDbEntity
  8
0
100
AcDbLine
 10
609.9904432104449
 20
5261.944179017897
 30
0.0
 11
609.9904432104449
 21
5244.194179017897
 31
0.0
  0
LINE
  5
93ED
330
2
100
AcDbEntity
  8
0
100
AcDbLine
 10
609.9904432104449
 20
5172.944179017897
 30
0.0
 11
609.9904432104449
 21
5143.194179017897
 31
0.0
  0
LINE
  5
93EE
330
2
100
AcDbEntity
  8
0
100
AcDbLine
 10
629.0904432104453
 20
5261.944179017897
 30
0.0
 11
629.0904432104453
 21
5244.194179017897
 31
0.0
  0
LINE
  5
93EF
330
2
100
AcDbEntity
  8
0
100
AcDbLine
 10
629.0904432104453
 20
5172.944179017897
 30
0.0
 11
629.0904432104453
 21
5143.194179017897
 31
0.0
  0
LINE
  5
93F0
330
2
100
AcDbEntity
  8
0
100
AcDbLine
 10
619.5404432104451
 20
5261.944179017897
 30
0.0
 11
619.5404432104451
 21
5244.194179017897
 31
0.0
  0
LINE
  5
93F1
330
2
100
AcDbEntity
  8
0
100
AcDbLine
 10
619.5404432104451
 20
5172.944179017897
 30
0.0
 11
619.5404432104451
 21
5143.194179017897
 31
0.0
  0
LINE
  5
93F2
330
2
100
AcDbEntity
  8
0
100
AcDbLine
 10
675.1404432104455
 20
5261.944179017897
 30
0.0
 11
675.1404432104455
 21
5244.194179017897
 31
0.0
  0
LWPOLYLINE
  5
93F3
330
2
100
AcDbEntity
  8
0
100
AcDbPolyline
 90
        4
 70
     1
 43
0.0
 10
721.0154432104455
 20
5264.819179017897
 10
721.0154432104455
 20
5241.319179017897
 10
661.5154432104455
 20
5241.319179017897
 10
661.5154432104455
 20
5264.819179017897
  0
LWPOLYLINE
  5
93F4
330
2
100
AcDbEntity
  8
0
100
AcDbPolyline
 90
        4
 70
     1
 43
0.0
 10
718.1404432104455
 20
5261.944179017897
 10
718.1404432104455
 20
5244.194179017897
 10
664.3904432104455
 20
5244.194179017897
 10
664.3904432104455
 20
5261.944179017897
  0
LWPOLYLINE
  5
93F5
330
2
100
AcDbEntity
  8
0
100
AcDbPolyline
 90
        4
 70
     1
 43
0.0
 10
720.3204432104458
 20
5264.124179017897
 10
720.3204432104458
 20
5242.014179017897
 10
662.2104432104452
 20
5242.014179017897
 10
662.2104432104452
 20
5264.124179017897
  0
TEXT
  5
93F6
330
2
100
AcDbEntity
  8
0
100
AcDbText
 10
681.3421144246333
 20
5130.667767938372
 30
0.0
 40
6.0
  1
5030
  7
ARIAL
 72
     1
 11
690.6654432104451
 21
5130.667767938372
 31
0.0
100
AcDbText
  0
TEXT
  5
93F7
330
2
100
AcDbEntity
  8
0
100
AcDbText
 10
681.3421144246333
 20
5184.167767938372
 30
0.0
 40
6.0
  1
5026
  7
ARIAL
 72
     1
 11
690.6654432104451
 21
5184.167767938372
 31
0.0
100
AcDbText
  0
LINE
  5
93F8
330
2
100
AcDbEntity
  8
0
100
AcDbLine
 10
720.3204432104458
 20
5242.014179017899
 30
0.0
 11
721.0154432104455
 21
5241.319179017897
 31
0.0
  0
TEXT
  5
93F9
330
2
100
AcDbEntity
  8
0
100
AcDbText
 10
681.3421144246333
 20
5231.667767938372
 30
0.0
 40
6.0
  1
5020
  7
ARIAL
 72
     1
 11
690.6654432104451
 21
5231.667767938372
 31
0.0
100
AcDbText
  0
LINE
  5
93FA
330
2
100
AcDbEntity
  8
0
100
AcDbLine
 10
662.2104432104443
 20
5242.014179017897
 30
0.0
 11
661.5154432104455
 21
5241.319179017897
 31
0.0
  0
LINE
  5
93FB
330
2
100
AcDbEntity
  8
0
100
AcDbLine
 10
664.3904432104455
 20
5253.069179017897
 30
0.0
 11
718.1404432104455
 21
5253.069179017897
 31
0.0
  0
LINE
  5
93FC
330
2
100
AcDbEntity
  8
0
100
AcDbLine
 10
720.3204432104458
 20
5264.124179017897
 30
0.0
 11
721.0154432104455
 21
5264.819179017897
 31
0.0
  0
LINE
  5
93FD
330
2
100
AcDbEntity
  8
0
100
AcDbLine
 10
661.5154432104455
 20
5264.819179017897
 30
0.0
 11
662.2104432104461
 21
5264.124179017897
 31
0.0
  0
LINE
  5
93FE
330
2
100
AcDbEntity
  8
0
100
AcDbLine
 10
675.1404432104455
 20
5172.944179017897
 30
0.0
 11
675.1404432104455
 21
5143.194179017897
 31
0.0
  0
LWPOLYLINE
  5
93FF
330
2
100
AcDbEntity
  8
0
100
AcDbPolyline
 90
        4
 70
     1
 43
0.0
 10
721.0154432104455
 20
5175.819179017897
 10
721.0154432104455
 20
5140.319179017897
 10
661.5154432104455
 20
5140.319179017897
 10
661.5154432104455
 20
5175.819179017897
  0
LWPOLYLINE
  5
9400
330
2
100
AcDbEntity
  8
0
100
AcDbPolyline
 90
        4
 70
     1
 43
0.0
 10
718.1404432104455
 20
5172.944179017897
 10
718.1404432104455
 20
5143.194179017897
 10
664.3904432104455
 20
5143.194179017897
 10
664.3904432104455
 20
5172.944179017897
  0
LWPOLYLINE
  5
9401
330
2
100
AcDbEntity
  8
0
100
AcDbPolyline
 90
        4
 70
     1
 43
0.0
 10
720.3204432104458
 20
5175.124179017897
 10
720.3204432104458
 20
5141.014179017897
 10
662.2104432104452
 20
5141.014179017897
 10
662.2104432104452
 20
5175.124179017897
  0
LINE
  5
9402
330
2
100
AcDbEntity
  8
0
100
AcDbLine
 10
720.3204432104458
 20
5141.014179017899
 30
0.0
 11
721.0154432104455
 21
5140.319179017897
 31
0.0
  0
LINE
  5
9403
330
2
100
AcDbEntity
  8
0
100
AcDbLine
 10
662.2104432104443
 20
5141.014179017897
 30
0.0
 11
661.5154432104455
 21
5140.319179017897
 31
0.0
  0
LINE
  5
9404
330
2
100
AcDbEntity
  8
0
100
AcDbLine
 10
664.3904432104455
 20
5163.027579017898
 30
0.0
 11
718.1404432104455
 21
5163.027579017898
 31
0.0
  0
LINE
  5
9405
330
2
100
AcDbEntity
  8
0
100
AcDbLine
 10
720.3204432104458
 20
5175.124179017897
 30
0.0
 11
721.0154432104455
 21
5175.819179017897
 31
0.0
  0
LINE
  5
9406
330
2
100
AcDbEntity
  8
0
100
AcDbLine
 10
661.5154432104455
 20
5175.819179017897
 30
0.0
 11
662.2104432104461
 21
5175.124179017897
 31
0.0
  0
LINE
  5
9407
330
2
100
AcDbEntity
  8
0
100
AcDbLine
 10
664.3904432104455
 20
5153.110779017898
 30
0.0
 11
718.1404432104455
 21
5153.110779017898
 31
0.0
  0
LINE
  5
9408
330
2
100
AcDbEntity
  8
0
100
AcDbLine
 10
685.8904432104455
 20
5261.944179017897
 30
0.0
 11
685.8904432104455
 21
5244.194179017897
 31
0.0
  0
LINE
  5
9409
330
2
100
AcDbEntity
  8
0
100
AcDbLine
 10
685.8904432104455
 20
5172.944179017897
 30
0.0
 11
685.8904432104455
 21
5143.194179017897
 31
0.0
  0
LINE
  5
940A
330
2
100
AcDbEntity
  8
0
100
AcDbLine
 10
707.3904432104455
 20
5261.944179017897
 30
0.0
 11
707.3904432104455
 21
5244.194179017897
 31
0.0
  0
LINE
  5
940B
330
2
100
AcDbEntity
  8
0
100
AcDbLine
 10
707.3904432104455
 20
5172.944179017897
 30
0.0
 11
707.3904432104455
 21
5143.194179017897
 31
0.0
  0
LINE
  5
940C
330
2
100
AcDbEntity
  8
0
100
AcDbLine
 10
696.6404432104455
 20
5261.944179017897
 30
0.0
 11
696.6404432104455
 21
5244.194179017897
 31
0.0
  0
LINE
  5
940D
330
2
100
AcDbEntity
  8
0
100
AcDbLine
 10
696.6404432104455
 20
5172.944179017897
 30
0.0
 11
696.6404432104455
 21
5143.194179017897
 31
0.0
  0
LINE
  5
940E
330
2
100
AcDbEntity
  8
0
100
AcDbLine
 10
638.6404432104455
 20
5261.944179017897
 30
0.0
 11
638.6404432104455
 21
5264.124179017897
 31
0.0
  0
LINE
  5
940F
330
2
100
AcDbEntity
  8
0
100
AcDbLine
 10
590.8904432104455
 20
5261.944179017897
 30
0.0
 11
590.8904432104455
 21
5264.124179017897
 31
0.0
  0
LINE
  5
9410
330
2
100
AcDbEntity
  8
0
100
AcDbLine
 10
590.8904432104455
 20
5244.194179017897
 30
0.0
 11
590.8904432104455
 21
5242.014179017897
 31
0.0
  0
LINE
  5
9411
330
2
100
AcDbEntity
  8
0
100
AcDbLine
 10
638.6404432104455
 20
5244.194179017897
 30
0.0
 11
638.6404432104455
 21
5242.014179017897
 31
0.0
  0
LINE
  5
9412
330
2
100
AcDbEntity
  8
0
100
AcDbLine
 10
718.1404432104455
 20
5261.944179017897
 30
0.0
 11
718.1404432104455
 21
5264.124179017897
 31
0.0
  0
LINE
  5
9413
330
2
100
AcDbEntity
  8
0
100
AcDbLine
 10
664.3904432104455
 20
5261.944179017897
 30
0.0
 11
664.3904432104455
 21
5264.124179017897
 31
0.0
  0
LINE
  5
9414
330
2
100
AcDbEntity
  8
0
100
AcDbLine
 10
664.3904432104455
 20
5244.194179017897
 30
0.0
 11
664.3904432104455
 21
5242.014179017897
 31
0.0
  0
LINE
  5
9415
330
2
100
AcDbEntity
  8
0
100
AcDbLine
 10
718.1404432104455
 20
5244.194179017897
 30
0.0
 11
718.1404432104455
 21
5242.014179017897
 31
0.0
  0
LINE
  5
9416
330
2
100
AcDbEntity
  8
0
100
AcDbLine
 10
565.1404432104455
 20
5172.944179017897
 30
0.0
 11
565.1404432104455
 21
5175.124179017897
 31
0.0
  0
LINE
  5
9417
330
2
100
AcDbEntity
  8
0
100
AcDbLine
 10
523.3904432104455
 20
5172.944179017897
 30
0.0
 11
523.3904432104455
 21
5175.124179017897
 31
0.0
  0
LINE
  5
9418
330
2
100
AcDbEntity
  8
0
100
AcDbLine
 10
523.3904432104455
 20
5143.194179017897
 30
0.0
 11
523.3904432104455
 21
5141.014179017897
 31
0.0
  0
LINE
  5
9419
330
2
100
AcDbEntity
  8
0
100
AcDbLine
 10
565.1404432104455
 20
5143.194179017897
 30
0.0
 11
565.1404432104455
 21
5141.014179017897
 31
0.0
  0
LINE
  5
941A
330
2
100
AcDbEntity
  8
0
100
AcDbLine
 10
638.6404432104455
 20
5172.944179017897
 30
0.0
 11
638.6404432104455
 21
5175.124179017897
 31
0.0
  0
LINE
  5
941B
330
2
100
AcDbEntity
  8
0
100
AcDbLine
 10
590.8904432104455
 20
5172.944179017897
 30
0.0
 11
590.8904432104455
 21
5175.124179017897
 31
0.0
  0
LINE
  5
941C
330
2
100
AcDbEntity
  8
0
100
AcDbLine
 10
590.8904432104455
 20
5143.194179017897
 30
0.0
 11
590.8904432104455
 21
5141.014179017897
 31
0.0
  0
LINE
  5
941D
330
2
100
AcDbEntity
  8
0
100
AcDbLine
 10
638.6404432104455
 20
5143.194179017897
 30
0.0
 11
638.6404432104455
 21
5141.014179017897
 31
0.0
  0
LINE
  5
941E
330
2
100
AcDbEntity
  8
0
100
AcDbLine
 10
718.1404432104455
 20
5172.944179017897
 30
0.0
 11
718.1404432104455
 21
5175.124179017897
 31
0.0
  0
LINE
  5
941F
330
2
100
AcDbEntity
  8
0
100
AcDbLine
 10
664.3904432104455
 20
5172.944179017897
 30
0.0
 11
664.3904432104455
 21
5175.124179017897
 31
0.0
  0
LINE
  5
9420
330
2
100
AcDbEntity
  8
0
100
AcDbLine
 10
664.3904432104455
 20
5143.194179017897
 30
0.0
 11
664.3904432104455
 21
5141.014179017897
 31
0.0
  0
LINE
  5
9421
330
2
100
AcDbEntity
  8
0
100
AcDbLine
 10
718.1404432104455
 20
5143.194179017897
 30
0.0
 11
718.1404432104455
 21
5141.014179017897
 31
0.0
  0
LINE
  5
9422
330
2
100
AcDbEntity
  8
0
100
AcDbLine
 10
533.8279432104455
 20
5261.944179017897
 30
0.0
 11
533.8279432104455
 21
5244.194179017897
 31
0.0
  0
LINE
  5
9423
330
2
100
AcDbEntity
  8
0
100
AcDbLine
 10
554.7029432104455
 20
5261.944179017897
 30
0.0
 11
554.7029432104455
 21
5244.194179017897
 31
0.0
  0
LWPOLYLINE
  5
9424
330
2
100
AcDbEntity
  8
0
100
AcDbPolyline
 90
        4
 70
     1
 43
0.0
 10
568.0154432104455
 20
5264.819179017897
 10
568.0154432104455
 20
5241.319179017897
 10
520.5154432104455
 20
5241.319179017897
 10
520.5154432104455
 20
5264.819179017897
  0
LWPOLYLINE
  5
9425
330
2
100
AcDbEntity
  8
0
100
AcDbPolyline
 90
        4
 70
     1
 43
0.0
 10
565.1404432104455
 20
5261.944179017897
 10
565.1404432104455
 20
5244.194179017897
 10
523.3904432104455
 20
5244.194179017897
 10
523.3904432104455
 20
5261.944179017897
  0
LWPOLYLINE
  5
9426
330
2
100
AcDbEntity
  8
0
100
AcDbPolyline
 90
        4
 70
     1
 43
0.0
 10
567.3204432104458
 20
5264.124179017897
 10
567.3204432104458
 20
5242.014179017897
 10
521.2104432104452
 20
5242.014179017897
 10
521.2104432104452
 20
5264.124179017897
  0
LINE
  5
9427
330
2
100
AcDbEntity
  8
0
100
AcDbLine
 10
567.3204432104449
 20
5242.014179017897
 30
0.0
 11
568.0154432104455
 21
5241.319179017897
 31
0.0
  0
LINE
  5
9428
330
2
100
AcDbEntity
  8
0
100
AcDbLine
 10
521.2104432104461
 20
5242.014179017897
 30
0.0
 11
520.5154432104455
 21
5241.319179017897
 31
0.0
  0
LINE
  5
9429
330
2
100
AcDbEntity
  8
0
100
AcDbLine
 10
523.3904432104455
 20
5253.069179017897
 30
0.0
 11
565.1404432104455
 21
5253.069179017897
 31
0.0
  0
LINE
  5
942A
330
2
100
AcDbEntity
  8
0
100
AcDbLine
 10
567.3204432104449
 20
5264.124179017896
 30
0.0
 11
568.0154432104455
 21
5264.819179017897
 31
0.0
  0
LINE
  5
942B
330
2
100
AcDbEntity
  8
0
100
AcDbLine
 10
520.5154432104455
 20
5264.819179017897
 30
0.0
 11
521.2104432104452
 21
5264.124179017896
 31
0.0
  0
LINE
  5
942C
330
2
100
AcDbEntity
  8
0
100
AcDbLine
 10
544.2654432104455
 20
5261.944179017897
 30
0.0
 11
544.2654432104455
 21
5244.194179017897
 31
0.0
  0
LINE
  5
942D
330
2
100
AcDbEntity
  8
0
100
AcDbLine
 10
565.1404432104455
 20
5261.944179017897
 30
0.0
 11
565.1404432104455
 21
5264.124179017897
 31
0.0
  0
LINE
  5
942E
330
2
100
AcDbEntity
  8
0
100
AcDbLine
 10
523.3904432104455
 20
5261.944179017897
 30
0.0
 11
523.3904432104455
 21
5264.124179017897
 31
0.0
  0
LINE
  5
942F
330
2
100
AcDbEntity
  8
0
100
AcDbLine
 10
523.3904432104455
 20
5244.194179017897
 30
0.0
 11
523.3904432104455
 21
5242.014179017897
 31
0.0
  0
LINE
  5
9430
330
2
100
AcDbEntity
  8
0
100
AcDbLine
 10
565.1404432104455
 20
5244.194179017897
 30
0.0
 11
565.1404432104455
 21
5242.014179017897
 31
0.0
  0
LINE
  5
9431
330
2
100
AcDbEntity
  8
0
100
AcDbLine
 10
600.4404432104457
 20
5220.444179017897
 30
0.0
 11
600.4404432104457
 21
5196.694179017897
 31
0.0
  0
LWPOLYLINE
  5
9432
330
2
100
AcDbEntity
  8
0
100
AcDbPolyline
 90
        4
 70
     1
 43
0.0
 10
641.5154432104455
 20
5223.319179017897
 10
641.5154432104455
 20
5193.819179017897
 10
588.0154432104455
 20
5193.819179017897
 10
588.0154432104455
 20
5223.319179017897
  0
LWPOLYLINE
  5
9433
330
2
100
AcDbEntity
  8
0
100
AcDbPolyline
 90
        4
 70
     1
 43
0.0
 10
638.6404432104455
 20
5220.444179017897
 10
638.6404432104455
 20
5196.694179017897
 10
590.8904432104455
 20
5196.694179017897
 10
590.8904432104455
 20
5220.444179017897
  0
LWPOLYLINE
  5
9434
330
2
100
AcDbEntity
  8
0
100
AcDbPolyline
 90
        4
 70
     1
 43
0.0
 10
640.8204432104458
 20
5222.624179017897
 10
640.8204432104458
 20
5194.514179017897
 10
588.7104432104452
 20
5194.514179017897
 10
588.7104432104452
 20
5222.624179017897
  0
LINE
  5
9435
330
2
100
AcDbEntity
  8
0
100
AcDbLine
 10
640.8204432104449
 20
5194.514179017899
 30
0.0
 11
641.5154432104455
 21
5193.819179017897
 31
0.0
  0
LINE
  5
9436
330
2
100
AcDbEntity
  8
0
100
AcDbLine
 10
588.7104432104443
 20
5194.514179017897
 30
0.0
 11
588.0154432104455
 21
5193.819179017897
 31
0.0
  0
LINE
  5
9437
330
2
100
AcDbEntity
  8
0
100
AcDbLine
 10
590.8904432104455
 20
5208.569179017897
 30
0.0
 11
638.6404432104455
 21
5208.569179017897
 31
0.0
  0
LINE
  5
9438
330
2
100
AcDbEntity
  8
0
100
AcDbLine
 10
640.8204432104449
 20
5222.624179017897
 30
0.0
 11
641.5154432104455
 21
5223.319179017897
 31
0.0
  0
LINE
  5
9439
330
2
100
AcDbEntity
  8
0
100
AcDbLine
 10
588.0154432104455
 20
5223.319179017897
 30
0.0
 11
588.7104432104461
 21
5222.624179017897
 31
0.0
  0
LINE
  5
943A
330
2
100
AcDbEntity
  8
0
100
AcDbLine
 10
609.9904432104449
 20
5220.444179017897
 30
0.0
 11
609.9904432104449
 21
5196.694179017897
 31
0.0
  0
LINE
  5
943B
330
2
100
AcDbEntity
  8
0
100
AcDbLine
 10
629.0904432104453
 20
5220.444179017897
 30
0.0
 11
629.0904432104453
 21
5196.694179017897
 31
0.0
  0
LINE
  5
943C
330
2
100
AcDbEntity
  8
0
100
AcDbLine
 10
619.5404432104451
 20
5220.444179017897
 30
0.0
 11
619.5404432104451
 21
5196.694179017897
 31
0.0
  0
LINE
  5
943D
330
2
100
AcDbEntity
  8
0
100
AcDbLine
 10
675.1404432104455
 20
5220.444179017897
 30
0.0
 11
675.1404432104455
 21
5196.694179017897
 31
0.0
  0
LWPOLYLINE
  5
943E
330
2
100
AcDbEntity
  8
0
100
AcDbPolyline
 90
        4
 70
     1
 43
0.0
 10
721.0154432104455
 20
5223.319179017897
 10
721.0154432104455
 20
5193.819179017897
 10
661.5154432104455
 20
5193.819179017897
 10
661.5154432104455
 20
5223.319179017897
  0
LWPOLYLINE
  5
943F
330
2
100
AcDbEntity
  8
0
100
AcDbPolyline
 90
        4
 70
     1
 43
0.0
 10
718.1404432104455
 20
5220.444179017897
 10
718.1404432104455
 20
5196.694179017897
 10
664.3904432104455
 20
5196.694179017897
 10
664.3904432104455
 20
5220.444179017897
  0
LWPOLYLINE
  5
9440
330
2
100
AcDbEntity
  8
0
100
AcDbPolyline
 90
        4
 70
     1
 43
0.0
 10
720.3204432104458
 20
5222.624179017897
 10
720.3204432104458
 20
5194.514179017897
 10
662.2104432104452
 20
5194.514179017897
 10
662.2104432104452
 20
5222.624179017897
  0
LINE
  5
9441
330
2
100
AcDbEntity
  8
0
100
AcDbLine
 10
720.3204432104458
 20
5194.514179017899
 30
0.0
 11
721.0154432104455
 21
5193.819179017897
 31
0.0
  0
LINE
  5
9442
330
2
100
AcDbEntity
  8
0
100
AcDbLine
 10
662.2104432104443
 20
5194.514179017897
 30
0.0
 11
661.5154432104455
 21
5193.819179017897
 31
0.0
  0
LINE
  5
9443
330
2
100
AcDbEntity
  8
0
100
AcDbLine
 10
664.3904432104455
 20
5208.569179017897
 30
0.0
 11
718.1404432104455
 21
5208.569179017897
 31
0.0
  0
LINE
  5
9444
330
2
100
AcDbEntity
  8
0
100
AcDbLine
 10
720.3204432104458
 20
5222.624179017897
 30
0.0
 11
721.0154432104455
 21
5223.319179017897
 31
0.0
  0
LINE
  5
9445
330
2
100
AcDbEntity
  8
0
100
AcDbLine
 10
661.5154432104455
 20
5223.319179017897
 30
0.0
 11
662.2104432104461
 21
5222.624179017897
 31
0.0
  0
LINE
  5
9446
330
2
100
AcDbEntity
  8
0
100
AcDbLine
 10
685.8904432104455
 20
5220.444179017897
 30
0.0
 11
685.8904432104455
 21
5196.694179017897
 31
0.0
  0
LINE
  5
9447
330
2
100
AcDbEntity
  8
0
100
AcDbLine
 10
707.3904432104455
 20
5220.444179017897
 30
0.0
 11
707.3904432104455
 21
5196.694179017897
 31
0.0
  0
LINE
  5
9448
330
2
100
AcDbEntity
  8
0
100
AcDbLine
 10
696.6404432104455
 20
5220.444179017897
 30
0.0
 11
696.6404432104455
 21
5196.694179017897
 31
0.0
  0
LINE
  5
9449
330
2
100
AcDbEntity
  8
0
100
AcDbLine
 10
638.6404432104455
 20
5220.444179017897
 30
0.0
 11
638.6404432104455
 21
5222.624179017897
 31
0.0
  0
LINE
  5
944A
330
2
100
AcDbEntity
  8
0
100
AcDbLine
 10
590.8904432104455
 20
5220.444179017897
 30
0.0
 11
590.8904432104455
 21
5222.624179017897
 31
0.0
  0
LINE
  5
944B
330
2
100
AcDbEntity
  8
0
100
AcDbLine
 10
590.8904432104455
 20
5196.694179017897
 30
0.0
 11
590.8904432104455
 21
5194.514179017897
 31
0.0
  0
LINE
  5
944C
330
2
100
AcDbEntity
  8
0
100
AcDbLine
 10
638.6404432104455
 20
5196.694179017897
 30
0.0
 11
638.6404432104455
 21
5194.514179017897
 31
0.0
  0
LINE
  5
944D
330
2
100
AcDbEntity
  8
0
100
AcDbLine
 10
718.1404432104455
 20
5220.444179017897
 30
0.0
 11
718.1404432104455
 21
5222.624179017897
 31
0.0
  0
LINE
  5
944E
330
2
100
AcDbEntity
  8
0
100
AcDbLine
 10
664.3904432104455
 20
5220.444179017897
 30
0.0
 11
664.3904432104455
 21
5222.624179017897
 31
0.0
  0
LINE
  5
944F
330
2
100
AcDbEntity
  8
0
100
AcDbLine
 10
664.3904432104455
 20
5196.694179017897
 30
0.0
 11
664.3904432104455
 21
5194.514179017897
 31
0.0
  0
LINE
  5
9450
330
2
100
AcDbEntity
  8
0
100
AcDbLine
 10
718.1404432104455
 20
5196.694179017897
 30
0.0
 11
718.1404432104455
 21
5194.514179017897
 31
0.0
  0
LINE
  5
9451
330
2
100
AcDbEntity
  8
0
100
AcDbLine
 10
533.8279432104455
 20
5220.444179017897
 30
0.0
 11
533.8279432104455
 21
5196.694179017897
 31
0.0
  0
LINE
  5
9452
330
2
100
AcDbEntity
  8
0
100
AcDbLine
 10
554.7029432104455
 20
5220.444179017897
 30
0.0
 11
554.7029432104455
 21
5196.694179017897
 31
0.0
  0
LWPOLYLINE
  5
9453
330
2
100
AcDbEntity
  8
0
100
AcDbPolyline
 90
        4
 70
     1
 43
0.0
 10
568.0154432104455
 20
5223.319179017897
 10
568.0154432104455
 20
5193.819179017897
 10
520.5154432104455
 20
5193.819179017897
 10
520.5154432104455
 20
5223.319179017897
  0
LWPOLYLINE
  5
9454
330
2
100
AcDbEntity
  8
0
100
AcDbPolyline
 90
        4
 70
     1
 43
0.0
 10
565.1404432104455
 20
5220.444179017897
 10
565.1404432104455
 20
5196.694179017897
 10
523.3904432104455
 20
5196.694179017897
 10
523.3904432104455
 20
5220.444179017897
  0
LWPOLYLINE
  5
9455
330
2
100
AcDbEntity
  8
0
100
AcDbPolyline
 90
        4
 70
     1
 43
0.0
 10
567.3204432104458
 20
5222.624179017897
 10
567.3204432104458
 20
5194.514179017897
 10
521.2104432104452
 20
5194.514179017897
 10
521.2104432104452
 20
5222.624179017897
  0
LINE
  5
9456
330
2
100
AcDbEntity
  8
0
100
AcDbLine
 10
567.3204432104449
 20
5194.514179017897
 30
0.0
 11
568.0154432104455
 21
5193.819179017897
 31
0.0
  0
LINE
  5
9457
330
2
100
AcDbEntity
  8
0
100
AcDbLine
 10
521.2104432104461
 20
5194.514179017897
 30
0.0
 11
520.5154432104455
 21
5193.819179017897
 31
0.0
  0
LINE
  5
9458
330
2
100
AcDbEntity
  8
0
100
AcDbLine
 10
523.3904432104455
 20
5208.569179017897
 30
0.0
 11
565.1404432104455
 21
5208.569179017897
 31
0.0
  0
LINE
  5
9459
330
2
100
AcDbEntity
  8
0
100
AcDbLine
 10
567.3204432104449
 20
5222.624179017896
 30
0.0
 11
568.0154432104455
 21
5223.319179017897
 31
0.0
  0
LINE
  5
945A
330
2
100
AcDbEntity
  8
0
100
AcDbLine
 10
520.5154432104455
 20
5223.319179017897
 30
0.0
 11
521.2104432104452
 21
5222.624179017896
 31
0.0
  0
LINE
  5
945B
330
2
100
AcDbEntity
  8
0
100
AcDbLine
 10
544.2654432104455
 20
5220.444179017897
 30
0.0
 11
544.2654432104455
 21
5196.694179017897
 31
0.0
  0
LINE
  5
945C
330
2
100
AcDbEntity
  8
0
100
AcDbLine
 10
565.1404432104455
 20
5220.444179017897
 30
0.0
 11
565.1404432104455
 21
5222.624179017897
 31
0.0
  0
LINE
  5
945D
330
2
100
AcDbEntity
  8
0
100
AcDbLine
 10
523.3904432104455
 20
5220.444179017897
 30
0.0
 11
523.3904432104455
 21
5222.624179017897
 31
0.0
  0
LINE
  5
945E
330
2
100
AcDbEntity
  8
0
100
AcDbLine
 10
523.3904432104455
 20
5196.694179017897
 30
0.0
 11
523.3904432104455
 21
5194.514179017897
 31
0.0
  0
LINE
  5
945F
330
2
100
AcDbEntity
  8
0
100
AcDbLine
 10
565.1404432104455
 20
5196.694179017897
 30
0.0
 11
565.1404432104455
 21
5194.514179017897
 31
0.0
  0
LINE
  5
9460
330
2
100
AcDbEntity
  8
0
100
AcDbLine
 10
600.4404432104457
 20
5334.944179017897
 30
0.0
 11
600.4404432104457
 21
5323.194179017897
 31
0.0
  0
LWPOLYLINE
  5
9461
330
2
100
AcDbEntity
  8
0
100
AcDbPolyline
 90
        4
 70
     1
 43
0.0
 10
641.5154432104455
 20
5337.819179017897
 10
641.5154432104455
 20
5320.319179017897
 10
588.0154432104455
 20
5320.319179017897
 10
588.0154432104455
 20
5337.819179017897
  0
LWPOLYLINE
  5
9462
330
2
100
AcDbEntity
  8
0
100
AcDbPolyline
 90
        4
 70
     1
 43
0.0
 10
638.6404432104455
 20
5334.944179017897
 10
638.6404432104455
 20
5323.194179017897
 10
590.8904432104455
 20
5323.194179017897
 10
590.8904432104455
 20
5334.944179017897
  0
LWPOLYLINE
  5
9463
330
2
100
AcDbEntity
  8
0
100
AcDbPolyline
 90
        4
 70
     1
 43
0.0
 10
640.8204432104458
 20
5337.124179017897
 10
640.8204432104458
 20
5321.014179017897
 10
588.7104432104452
 20
5321.014179017897
 10
588.7104432104452
 20
5337.124179017897
  0
LINE
  5
9464
330
2
100
AcDbEntity
  8
0
100
AcDbLine
 10
640.8204432104449
 20
5321.014179017899
 30
0.0
 11
641.5154432104455
 21
5320.319179017897
 31
0.0
  0
LINE
  5
9465
330
2
100
AcDbEntity
  8
0
100
AcDbLine
 10
588.7104432104443
 20
5321.014179017897
 30
0.0
 11
588.0154432104455
 21
5320.319179017897
 31
0.0
  0
LINE
  5
9466
330
2
100
AcDbEntity
  8
0
100
AcDbLine
 10
640.8204432104449
 20
5337.124179017897
 30
0.0
 11
641.5154432104455
 21
5337.819179017897
 31
0.0
  0
LINE
  5
9467
330
2
100
AcDbEntity
  8
0
100
AcDbLine
 10
588.0154432104455
 20
5337.819179017897
 30
0.0
 11
588.7104432104461
 21
5337.124179017897
 31
0.0
  0
LINE
  5
9468
330
2
100
AcDbEntity
  8
0
100
AcDbLine
 10
609.9904432104449
 20
5334.944179017897
 30
0.0
 11
609.9904432104449
 21
5323.194179017897
 31
0.0
  0
LINE
  5
9469
330
2
100
AcDbEntity
  8
0
100
AcDbLine
 10
629.0904432104453
 20
5334.944179017897
 30
0.0
 11
629.0904432104453
 21
5323.194179017897
 31
0.0
  0
LINE
  5
946A
330
2
100
AcDbEntity
  8
0
100
AcDbLine
 10
619.5404432104451
 20
5334.944179017897
 30
0.0
 11
619.5404432104451
 21
5323.194179017897
 31
0.0
  0
LINE
  5
946B
330
2
100
AcDbEntity
  8
0
100
AcDbLine
 10
675.1404432104455
 20
5334.944179017897
 30
0.0
 11
675.1404432104455
 21
5323.194179017897
 31
0.0
  0
LWPOLYLINE
  5
946C
330
2
100
AcDbEntity
  8
0
100
AcDbPolyline
 90
        4
 70
     1
 43
0.0
 10
721.0154432104455
 20
5337.819179017897
 10
721.0154432104455
 20
5320.319179017897
 10
661.5154432104455
 20
5320.319179017897
 10
661.5154432104455
 20
5337.819179017897
  0
LWPOLYLINE
  5
946D
330
2
100
AcDbEntity
  8
0
100
AcDbPolyline
 90
        4
 70
     1
 43
0.0
 10
718.1404432104455
 20
5334.944179017897
 10
718.1404432104455
 20
5323.194179017897
 10
664.3904432104455
 20
5323.194179017897
 10
664.3904432104455
 20
5334.944179017897
  0
LWPOLYLINE
  5
946E
330
2
100
AcDbEntity
  8
0
100
AcDbPolyline
 90
        4
 70
     1
 43
0.0
 10
720.3204432104458
 20
5337.124179017897
 10
720.3204432104458
 20
5321.014179017897
 10
662.2104432104452
 20
5321.014179017897
 10
662.2104432104452
 20
5337.124179017897
  0
LINE
  5
946F
330
2
100
AcDbEntity
  8
0
100
AcDbLine
 10
720.3204432104458
 20
5321.014179017899
 30
0.0
 11
721.0154432104455
 21
5320.319179017897
 31
0.0
  0
LINE
  5
9470
330
2
100
AcDbEntity
  8
0
100
AcDbLine
 10
662.2104432104443
 20
5321.014179017897
 30
0.0
 11
661.5154432104455
 21
5320.319179017897
 31
0.0
  0
LINE
  5
9471
330
2
100
AcDbEntity
  8
0
100
AcDbLine
 10
720.3204432104458
 20
5337.124179017897
 30
0.0
 11
721.0154432104455
 21
5337.819179017897
 31
0.0
  0
LINE
  5
9472
330
2
100
AcDbEntity
  8
0
100
AcDbLine
 10
661.5154432104455
 20
5337.819179017897
 30
0.0
 11
662.2104432104461
 21
5337.124179017897
 31
0.0
  0
LINE
  5
9473
330
2
100
AcDbEntity
  8
0
100
AcDbLine
 10
685.8904432104455
 20
5334.944179017897
 30
0.0
 11
685.8904432104455
 21
5323.194179017897
 31
0.0
  0
LINE
  5
9474
330
2
100
AcDbEntity
  8
0
100
AcDbLine
 10
707.3904432104455
 20
5334.944179017897
 30
0.0
 11
707.3904432104455
 21
5323.194179017897
 31
0.0
  0
LINE
  5
9475
330
2
100
AcDbEntity
  8
0
100
AcDbLine
 10
696.6404432104455
 20
5334.944179017897
 30
0.0
 11
696.6404432104455
 21
5323.194179017897
 31
0.0
  0
LINE
  5
9476
330
2
100
AcDbEntity
  8
0
100
AcDbLine
 10
638.6404432104455
 20
5334.944179017897
 30
0.0
 11
638.6404432104455
 21
5337.124179017897
 31
0.0
  0
LINE
  5
9477
330
2
100
AcDbEntity
  8
0
100
AcDbLine
 10
590.8904432104455
 20
5334.944179017897
 30
0.0
 11
590.8904432104455
 21
5337.124179017897
 31
0.0
  0
LINE
  5
9478
330
2
100
AcDbEntity
  8
0
100
AcDbLine
 10
590.8904432104455
 20
5323.194179017897
 30
0.0
 11
590.8904432104455
 21
5321.014179017897
 31
0.0
  0
LINE
  5
9479
330
2
100
AcDbEntity
  8
0
100
AcDbLine
 10
638.6404432104455
 20
5323.194179017897
 30
0.0
 11
638.6404432104455
 21
5321.014179017897
 31
0.0
  0
LINE
  5
947A
330
2
100
AcDbEntity
  8
0
100
AcDbLine
 10
718.1404432104455
 20
5334.944179017897
 30
0.0
 11
718.1404432104455
 21
5337.124179017897
 31
0.0
  0
LINE
  5
947B
330
2
100
AcDbEntity
  8
0
100
AcDbLine
 10
664.3904432104455
 20
5334.944179017897
 30
0.0
 11
664.3904432104455
 21
5337.124179017897
 31
0.0
  0
LINE
  5
947C
330
2
100
AcDbEntity
  8
0
100
AcDbLine
 10
664.3904432104455
 20
5323.194179017897
 30
0.0
 11
664.3904432104455
 21
5321.014179017897
 31
0.0
  0
LINE
  5
947D
330
2
100
AcDbEntity
  8
0
100
AcDbLine
 10
718.1404432104455
 20
5323.194179017897
 30
0.0
 11
718.1404432104455
 21
5321.014179017897
 31
0.0
  0
LINE
  5
947E
330
2
100
AcDbEntity
  8
0
100
AcDbLine
 10
533.8279432104455
 20
5334.944179017897
 30
0.0
 11
533.8279432104455
 21
5323.194179017897
 31
0.0
  0
LINE
  5
947F
330
2
100
AcDbEntity
  8
0
100
AcDbLine
 10
554.7029432104455
 20
5334.944179017897
 30
0.0
 11
554.7029432104455
 21
5323.194179017897
 31
0.0
  0
LWPOLYLINE
  5
9480
330
2
100
AcDbEntity
  8
0
100
AcDbPolyline
 90
        4
 70
     1
 43
0.0
 10
568.0154432104455
 20
5337.819179017897
 10
568.0154432104455
 20
5320.319179017897
 10
520.5154432104455
 20
5320.319179017897
 10
520.5154432104455
 20
5337.819179017897
  0
LWPOLYLINE
  5
9481
330
2
100
AcDbEntity
  8
0
100
AcDbPolyline
 90
        4
 70
     1
 43
0.0
 10
565.1404432104455
 20
5334.944179017897
 10
565.1404432104455
 20
5323.194179017897
 10
523.3904432104455
 20
5323.194179017897
 10
523.3904432104455
 20
5334.944179017897
  0
LWPOLYLINE
  5
9482
330
2
100
AcDbEntity
  8
0
100
AcDbPolyline
 90
        4
 70
     1
 43
0.0
 10
567.3204432104458
 20
5337.124179017897
 10
567.3204432104458
 20
5321.014179017897
 10
521.2104432104452
 20
5321.014179017897
 10
521.2104432104452
 20
5337.124179017897
  0
LINE
  5
9483
330
2
100
AcDbEntity
  8
0
100
AcDbLine
 10
567.3204432104449
 20
5321.014179017897
 30
0.0
 11
568.0154432104455
 21
5320.319179017897
 31
0.0
  0
LINE
  5
9484
330
2
100
AcDbEntity
  8
0
100
AcDbLine
 10
521.2104432104461
 20
5321.014179017897
 30
0.0
 11
520.5154432104455
 21
5320.319179017897
 31
0.0
  0
LINE
  5
9485
330
2
100
AcDbEntity
  8
0
100
AcDbLine
 10
567.3204432104449
 20
5337.124179017896
 30
0.0
 11
568.0154432104455
 21
5337.819179017897
 31
0.0
  0
LINE
  5
9486
330
2
100
AcDbEntity
  8
0
100
AcDbLine
 10
520.5154432104455
 20
5337.819179017897
 30
0.0
 11
521.2104432104452
 21
5337.124179017896
 31
0.0
  0
LINE
  5
9487
330
2
100
AcDbEntity
  8
0
100
AcDbLine
 10
544.2654432104455
 20
5334.944179017897
 30
0.0
 11
544.2654432104455
 21
5323.194179017897
 31
0.0
  0
LINE
  5
9488
330
2
100
AcDbEntity
  8
0
100
AcDbLine
 10
565.1404432104455
 20
5334.944179017897
 30
0.0
 11
565.1404432104455
 21
5337.124179017897
 31
0.0
  0
LINE
  5
9489
330
2
100
AcDbEntity
  8
0
100
AcDbLine
 10
523.3904432104455
 20
5334.944179017897
 30
0.0
 11
523.3904432104455
 21
5337.124179017897
 31
0.0
  0
LINE
  5
948A
330
2
100
AcDbEntity
  8
0
100
AcDbLine
 10
523.3904432104455
 20
5323.194179017897
 30
0.0
 11
523.3904432104455
 21
5321.014179017897
 31
0.0
  0
LINE
  5
948B
330
2
100
AcDbEntity
  8
0
100
AcDbLine
 10
565.1404432104455
 20
5323.194179017897
 30
0.0
 11
565.1404432104455
 21
5321.014179017897
 31
0.0
  0
LINE
  5
948C
330
2
100
AcDbEntity
  8
0
100
AcDbLine
 10
600.4404432104457
 20
5299.444179017897
 30
0.0
 11
600.4404432104457
 21
5285.694179017897
 31
0.0
  0
LWPOLYLINE
  5
948D
330
2
100
AcDbEntity
  8
0
100
AcDbPolyline
 90
        4
 70
     1
 43
0.0
 10
641.5154432104455
 20
5302.319179017897
 10
641.5154432104455
 20
5282.819179017897
 10
588.0154432104455
 20
5282.819179017897
 10
588.0154432104455
 20
5302.319179017897
  0
LWPOLYLINE
  5
948E
330
2
100
AcDbEntity
  8
0
100
AcDbPolyline
 90
        4
 70
     1
 43
0.0
 10
638.6404432104455
 20
5299.444179017897
 10
638.6404432104455
 20
5285.694179017897
 10
590.8904432104455
 20
5285.694179017897
 10
590.8904432104455
 20
5299.444179017897
  0
LWPOLYLINE
  5
948F
330
2
100
AcDbEntity
  8
0
100
AcDbPolyline
 90
        4
 70
     1
 43
0.0
 10
640.8204432104458
 20
5301.624179017897
 10
640.8204432104458
 20
5283.514179017897
 10
588.7104432104452
 20
5283.514179017897
 10
588.7104432104452
 20
5301.624179017897
  0
LINE
  5
9490
330
2
100
AcDbEntity
  8
0
100
AcDbLine
 10
640.8204432104449
 20
5283.514179017899
 30
0.0
 11
641.5154432104455
 21
5282.819179017897
 31
0.0
  0
LINE
  5
9491
330
2
100
AcDbEntity
  8
0
100
AcDbLine
 10
588.7104432104443
 20
5283.514179017897
 30
0.0
 11
588.0154432104455
 21
5282.819179017897
 31
0.0
  0
LINE
  5
9492
330
2
100
AcDbEntity
  8
0
100
AcDbLine
 10
640.8204432104449
 20
5301.624179017897
 30
0.0
 11
641.5154432104455
 21
5302.319179017897
 31
0.0
  0
LINE
  5
9493
330
2
100
AcDbEntity
  8
0
100
AcDbLine
 10
588.0154432104455
 20
5302.319179017897
 30
0.0
 11
588.7104432104461
 21
5301.624179017897
 31
0.0
  0
LINE
  5
9494
330
2
100
AcDbEntity
  8
0
100
AcDbLine
 10
609.9904432104449
 20
5299.444179017897
 30
0.0
 11
609.9904432104449
 21
5285.694179017897
 31
0.0
  0
LINE
  5
9495
330
2
100
AcDbEntity
  8
0
100
AcDbLine
 10
629.0904432104453
 20
5299.444179017897
 30
0.0
 11
629.0904432104453
 21
5285.694179017897
 31
0.0
  0
LINE
  5
9496
330
2
100
AcDbEntity
  8
0
100
AcDbLine
 10
619.5404432104451
 20
5299.444179017897
 30
0.0
 11
619.5404432104451
 21
5285.694179017897
 31
0.0
  0
LINE
  5
9497
330
2
100
AcDbEntity
  8
0
100
AcDbLine
 10
675.1404432104455
 20
5299.444179017897
 30
0.0
 11
675.1404432104455
 21
5285.694179017897
 31
0.0
  0
LWPOLYLINE
  5
9498
330
2
100
AcDbEntity
  8
0
100
AcDbPolyline
 90
        4
 70
     1
 43
0.0
 10
721.0154432104455
 20
5302.319179017897
 10
721.0154432104455
 20
5282.819179017897
 10
661.5154432104455
 20
5282.819179017897
 10
661.5154432104455
 20
5302.319179017897
  0
LWPOLYLINE
  5
9499
330
2
100
AcDbEntity
  8
0
100
AcDbPolyline
 90
        4
 70
     1
 43
0.0
 10
718.1404432104455
 20
5299.444179017897
 10
718.1404432104455
 20
5285.694179017897
 10
664.3904432104455
 20
5285.694179017897
 10
664.3904432104455
 20
5299.444179017897
  0
LWPOLYLINE
  5
949A
330
2
100
AcDbEntity
  8
0
100
AcDbPolyline
 90
        4
 70
     1
 43
0.0
 10
720.3204432104458
 20
5301.624179017897
 10
720.3204432104458
 20
5283.514179017897
 10
662.2104432104452
 20
5283.514179017897
 10
662.2104432104452
 20
5301.624179017897
  0
LINE
  5
949B
330
2
100
AcDbEntity
  8
0
100
AcDbLine
 10
720.3204432104458
 20
5283.514179017899
 30
0.0
 11
721.0154432104455
 21
5282.819179017897
 31
0.0
  0
LINE
  5
949C
330
2
100
AcDbEntity
  8
0
100
AcDbLine
 10
662.2104432104443
 20
5283.514179017897
 30
0.0
 11
661.5154432104455
 21
5282.819179017897
 31
0.0
  0
LINE
  5
949D
330
2
100
AcDbEntity
  8
0
100
AcDbLine
 10
720.3204432104458
 20
5301.624179017897
 30
0.0
 11
721.0154432104455
 21
5302.319179017897
 31
0.0
  0
LINE
  5
949E
330
2
100
AcDbEntity
  8
0
100
AcDbLine
 10
661.5154432104455
 20
5302.319179017897
 30
0.0
 11
662.2104432104461
 21
5301.624179017897
 31
0.0
  0
LINE
  5
949F
330
2
100
AcDbEntity
  8
0
100
AcDbLine
 10
685.8904432104455
 20
5299.444179017897
 30
0.0
 11
685.8904432104455
 21
5285.694179017897
 31
0.0
  0
LINE
  5
94A0
330
2
100
AcDbEntity
  8
0
100
AcDbLine
 10
707.3904432104455
 20
5299.444179017897
 30
0.0
 11
707.3904432104455
 21
5285.694179017897
 31
0.0
  0
LINE
  5
94A1
330
2
100
AcDbEntity
  8
0
100
AcDbLine
 10
696.6404432104455
 20
5299.444179017897
 30
0.0
 11
696.6404432104455
 21
5285.694179017897
 31
0.0
  0
LINE
  5
94A2
330
2
100
AcDbEntity
  8
0
100
AcDbLine
 10
638.6404432104455
 20
5299.444179017897
 30
0.0
 11
638.6404432104455
 21
5301.624179017897
 31
0.0
  0
LINE
  5
94A3
330
2
100
AcDbEntity
  8
0
100
AcDbLine
 10
590.8904432104455
 20
5299.444179017897
 30
0.0
 11
590.8904432104455
 21
5301.624179017897
 31
0.0
  0
LINE
  5
94A4
330
2
100
AcDbEntity
  8
0
100
AcDbLine
 10
590.8904432104455
 20
5285.694179017897
 30
0.0
 11
590.8904432104455
 21
5283.514179017897
 31
0.0
  0
LINE
  5
94A5
330
2
100
AcDbEntity
  8
0
100
AcDbLine
 10
638.6404432104455
 20
5285.694179017897
 30
0.0
 11
638.6404432104455
 21
5283.514179017897
 31
0.0
  0
LINE
  5
94A6
330
2
100
AcDbEntity
  8
0
100
AcDbLine
 10
718.1404432104455
 20
5299.444179017897
 30
0.0
 11
718.1404432104455
 21
5301.624179017897
 31
0.0
  0
LINE
  5
94A7
330
2
100
AcDbEntity
  8
0
100
AcDbLine
 10
664.3904432104455
 20
5299.444179017897
 30
0.0
 11
664.3904432104455
 21
5301.624179017897
 31
0.0
  0
LINE
  5
94A8
330
2
100
AcDbEntity
  8
0
100
AcDbLine
 10
664.3904432104455
 20
5285.694179017897
 30
0.0
 11
664.3904432104455
 21
5283.514179017897
 31
0.0
  0
LINE
  5
94A9
330
2
100
AcDbEntity
  8
0
100
AcDbLine
 10
718.1404432104455
 20
5285.694179017897
 30
0.0
 11
718.1404432104455
 21
5283.514179017897
 31
0.0
  0
LINE
  5
94AA
330
2
100
AcDbEntity
  8
0
100
AcDbLine
 10
533.8279432104455
 20
5299.444179017897
 30
0.0
 11
533.8279432104455
 21
5285.694179017897
 31
0.0
  0
LINE
  5
94AB
330
2
100
AcDbEntity
  8
0
100
AcDbLine
 10
554.7029432104455
 20
5299.444179017897
 30
0.0
 11
554.7029432104455
 21
5285.694179017897
 31
0.0
  0
LWPOLYLINE
  5
94AC
330
2
100
AcDbEntity
  8
0
100
AcDbPolyline
 90
        4
 70
     1
 43
0.0
 10
568.0154432104455
 20
5302.319179017897
 10
568.0154432104455
 20
5282.819179017897
 10
520.5154432104455
 20
5282.819179017897
 10
520.5154432104455
 20
5302.319179017897
  0
LWPOLYLINE
  5
94AD
330
2
100
AcDbEntity
  8
0
100
AcDbPolyline
 90
        4
 70
     1
 43
0.0
 10
565.1404432104455
 20
5299.444179017897
 10
565.1404432104455
 20
5285.694179017897
 10
523.3904432104455
 20
5285.694179017897
 10
523.3904432104455
 20
5299.444179017897
  0
LWPOLYLINE
  5
94AE
330
2
100
AcDbEntity
  8
0
100
AcDbPolyline
 90
        4
 70
     1
 43
0.0
 10
567.3204432104458
 20
5301.624179017897
 10
567.3204432104458
 20
5283.514179017897
 10
521.2104432104452
 20
5283.514179017897
 10
521.2104432104452
 20
5301.624179017897
  0
LINE
  5
94AF
330
2
100
AcDbEntity
  8
0
100
AcDbLine
 10
567.3204432104449
 20
5283.514179017897
 30
0.0
 11
568.0154432104455
 21
5282.819179017897
 31
0.0
  0
LINE
  5
94B0
330
2
100
AcDbEntity
  8
0
100
AcDbLine
 10
521.2104432104461
 20
5283.514179017897
 30
0.0
 11
520.5154432104455
 21
5282.819179017897
 31
0.0
  0
LINE
  5
94B1
330
2
100
AcDbEntity
  8
0
100
AcDbLine
 10
567.3204432104449
 20
5301.624179017896
 30
0.0
 11
568.0154432104455
 21
5302.319179017897
 31
0.0
  0
LINE
  5
94B2
330
2
100
AcDbEntity
  8
0
100
AcDbLine
 10
520.5154432104455
 20
5302.319179017897
 30
0.0
 11
521.2104432104452
 21
5301.624179017896
 31
0.0
  0
LINE
  5
94B3
330
2
100
AcDbEntity
  8
0
100
AcDbLine
 10
544.2654432104455
 20
5299.444179017897
 30
0.0
 11
544.2654432104455
 21
5285.694179017897
 31
0.0
  0
LINE
  5
94B4
330
2
100
AcDbEntity
  8
0
100
AcDbLine
 10
565.1404432104455
 20
5299.444179017897
 30
0.0
 11
565.1404432104455
 21
5301.624179017897
 31
0.0
  0
LINE
  5
94B5
330
2
100
AcDbEntity
  8
0
100
AcDbLine
 10
523.3904432104455
 20
5299.444179017897
 30
0.0
 11
523.3904432104455
 21
5301.624179017897
 31
0.0
  0
LINE
  5
94B6
330
2
100
AcDbEntity
  8
0
100
AcDbLine
 10
523.3904432104455
 20
5285.694179017897
 30
0.0
 11
523.3904432104455
 21
5283.514179017897
 31
0.0
  0
LINE
  5
94B7
330
2
100
AcDbEntity
  8
0
100
AcDbLine
 10
565.1404432104455
 20
5285.694179017897
 30
0.0
 11
565.1404432104455
 21
5283.514179017897
 31
0.0
  0
LINE
  5
94B8
330
2
100
AcDbEntity
  8
0
100
AcDbLine
 10
147.3487432104457
 20
4953.122885709599
 30
0.0
 11
147.3487432104457
 21
4935.372885709599
 31
0.0
  0
LWPOLYLINE
  5
94B9
330
2
100
AcDbEntity
  8
0
100
AcDbPolyline
 90
        4
 70
     1
 43
0.0
 10
200.0154432104455
 20
4955.997885709599
 10
200.0154432104455
 20
4932.497885709599
 10
134.5154432104455
 20
4932.497885709599
 10
134.5154432104455
 20
4955.997885709599
  0
LWPOLYLINE
  5
94BA
330
2
100
AcDbEntity
  8
0
100
AcDbPolyline
 90
        4
 70
     1
 43
0.0
 10
197.1404432104455
 20
4953.122885709599
 10
197.1404432104455
 20
4935.372885709599
 10
137.3904432104455
 20
4935.372885709599
 10
137.3904432104455
 20
4953.122885709599
  0
LWPOLYLINE
  5
94BB
330
2
100
AcDbEntity
  8
0
100
AcDbPolyline
 90
        4
 70
     1
 43
0.0
 10
199.3204432104458
 20
4955.3028857096
 10
199.3204432104458
 20
4933.192885709599
 10
135.2104432104452
 20
4933.192885709599
 10
135.2104432104452
 20
4955.3028857096
  0
TEXT
  5
94BC
330
2
100
AcDbEntity
  8
0
100
AcDbText
 10
157.3421144246334
 20
4821.846474630074
 30
0.0
 40
6.0
  1
5630
  7
ARIAL
 72
     1
 11
166.6654432104451
 21
4821.846474630074
 31
0.0
100
AcDbText
  0
TEXT
  5
94BD
330
2
100
AcDbEntity
  8
0
100
AcDbText
 10
157.3421144246334
 20
4875.346474630074
 30
0.0
 40
6.0
  1
5626
  7
ARIAL
 72
     1
 11
166.6654432104451
 21
4875.346474630074
 31
0.0
100
AcDbText
  0
LINE
  5
94BE
330
2
100
AcDbEntity
  8
0
100
AcDbLine
 10
199.3204432104458
 20
4933.192885709601
 30
0.0
 11
200.0154432104455
 21
4932.497885709599
 31
0.0
  0
TEXT
  5
94BF
330
2
100
AcDbEntity
  8
0
100
AcDbText
 10
157.3421144246334
 20
4922.846474630074
 30
0.0
 40
6.0
  1
5620
  7
ARIAL
 72
     1
 11
166.6654432104451
 21
4922.846474630074
 31
0.0
100
AcDbText
  0
LINE
  5
94C0
330
2
100
AcDbEntity
  8
0
100
AcDbLine
 10
135.2104432104443
 20
4933.192885709599
 30
0.0
 11
134.5154432104455
 21
4932.497885709599
 31
0.0
  0
LINE
  5
94C1
330
2
100
AcDbEntity
  8
0
100
AcDbLine
 10
137.3904432104455
 20
4944.247885709599
 30
0.0
 11
197.1404432104455
 21
4944.247885709599
 31
0.0
  0
LINE
  5
94C2
330
2
100
AcDbEntity
  8
0
100
AcDbLine
 10
199.3204432104458
 20
4955.3028857096
 30
0.0
 11
200.0154432104455
 21
4955.997885709599
 31
0.0
  0
LINE
  5
94C3
330
2
100
AcDbEntity
  8
0
100
AcDbLine
 10
134.5154432104455
 20
4955.997885709599
 30
0.0
 11
135.2104432104461
 21
4955.3028857096
 31
0.0
  0
LINE
  5
94C4
330
2
100
AcDbEntity
  8
0
100
AcDbLine
 10
147.3487432104457
 20
4864.122885709599
 30
0.0
 11
147.3487432104457
 21
4834.372885709599
 31
0.0
  0
LWPOLYLINE
  5
94C5
330
2
100
AcDbEntity
  8
0
100
AcDbPolyline
 90
        4
 70
     1
 43
0.0
 10
200.0154432104455
 20
4866.997885709599
 10
200.0154432104455
 20
4831.497885709599
 10
134.5154432104455
 20
4831.497885709599
 10
134.5154432104455
 20
4866.997885709599
  0
LWPOLYLINE
  5
94C6
330
2
100
AcDbEntity
  8
0
100
AcDbPolyline
 90
        4
 70
     1
 43
0.0
 10
197.1404432104455
 20
4864.122885709599
 10
197.1404432104455
 20
4834.372885709599
 10
137.3904432104455
 20
4834.372885709599
 10
137.3904432104455
 20
4864.122885709599
  0
LWPOLYLINE
  5
94C7
330
2
100
AcDbEntity
  8
0
100
AcDbPolyline
 90
        4
 70
     1
 43
0.0
 10
199.3204432104458
 20
4866.3028857096
 10
199.3204432104458
 20
4832.192885709599
 10
135.2104432104452
 20
4832.192885709599
 10
135.2104432104452
 20
4866.3028857096
  0
LINE
  5
94C8
330
2
100
AcDbEntity
  8
0
100
AcDbLine
 10
199.3204432104458
 20
4832.192885709601
 30
0.0
 11
200.0154432104455
 21
4831.497885709599
 31
0.0
  0
LINE
  5
94C9
330
2
100
AcDbEntity
  8
0
100
AcDbLine
 10
135.2104432104443
 20
4832.192885709599
 30
0.0
 11
134.5154432104455
 21
4831.497885709599
 31
0.0
  0
LINE
  5
94CA
330
2
100
AcDbEntity
  8
0
100
AcDbLine
 10
137.3904432104455
 20
4854.206285709601
 30
0.0
 11
197.1404432104455
 21
4854.206285709601
 31
0.0
  0
LINE
  5
94CB
330
2
100
AcDbEntity
  8
0
100
AcDbLine
 10
199.3204432104458
 20
4866.3028857096
 30
0.0
 11
200.0154432104455
 21
4866.997885709599
 31
0.0
  0
LINE
  5
94CC
330
2
100
AcDbEntity
  8
0
100
AcDbLine
 10
134.5154432104455
 20
4866.997885709599
 30
0.0
 11
135.2104432104461
 21
4866.3028857096
 31
0.0
  0
LINE
  5
94CD
330
2
100
AcDbEntity
  8
0
100
AcDbLine
 10
137.3904432104455
 20
4844.2894857096
 30
0.0
 11
197.1404432104455
 21
4844.2894857096
 31
0.0
  0
LINE
  5
94CE
330
2
100
AcDbEntity
  8
0
100
AcDbLine
 10
157.307043210445
 20
4953.122885709599
 30
0.0
 11
157.307043210445
 21
4935.372885709599
 31
0.0
  0
LINE
  5
94CF
330
2
100
AcDbEntity
  8
0
100
AcDbLine
 10
157.307043210445
 20
4864.122885709599
 30
0.0
 11
157.307043210445
 21
4834.372885709599
 31
0.0
  0
LINE
  5
94D0
330
2
100
AcDbEntity
  8
0
100
AcDbLine
 10
187.1821432104452
 20
4953.122885709599
 30
0.0
 11
187.1821432104452
 21
4935.372885709599
 31
0.0
  0
LINE
  5
94D1
330
2
100
AcDbEntity
  8
0
100
AcDbLine
 10
187.1821432104452
 20
4864.122885709599
 30
0.0
 11
187.1821432104452
 21
4834.372885709599
 31
0.0
  0
LINE
  5
94D2
330
2
100
AcDbEntity
  8
0
100
AcDbLine
 10
177.2238432104459
 20
4953.122885709599
 30
0.0
 11
177.2238432104459
 21
4935.372885709599
 31
0.0
  0
LINE
  5
94D3
330
2
100
AcDbEntity
  8
0
100
AcDbLine
 10
177.2238432104459
 20
4864.122885709599
 30
0.0
 11
177.2238432104459
 21
4834.372885709599
 31
0.0
  0
LINE
  5
94D4
330
2
100
AcDbEntity
  8
0
100
AcDbLine
 10
167.2654432104455
 20
4953.122885709599
 30
0.0
 11
167.2654432104455
 21
4935.372885709599
 31
0.0
  0
LINE
  5
94D5
330
2
100
AcDbEntity
  8
0
100
AcDbLine
 10
167.2654432104455
 20
4864.122885709599
 30
0.0
 11
167.2654432104455
 21
4834.372885709599
 31
0.0
  0
TEXT
  5
94D6
330
2
100
AcDbEntity
  8
0
100
AcDbText
 10
245.8421144246334
 20
4821.846474630074
 30
0.0
 40
6.0
  1
6030
  7
ARIAL
 72
     1
 11
255.1654432104451
 21
4821.846474630074
 31
0.0
100
AcDbText
  0
TEXT
  5
94D7
330
2
100
AcDbEntity
  8
0
100
AcDbText
 10
245.8421144246334
 20
4875.346474630074
 30
0.0
 40
6.0
  1
6026
  7
ARIAL
 72
     1
 11
255.1654432104451
 21
4875.346474630074
 31
0.0
100
AcDbText
  0
TEXT
  5
94D8
330
2
100
AcDbEntity
  8
0
100
AcDbText
 10
245.8421144246334
 20
4922.846474630074
 30
0.0
 40
6.0
  1
6020
  7
ARIAL
 72
     1
 11
255.1654432104451
 21
4922.846474630074
 31
0.0
100
AcDbText
  0
LINE
  5
94D9
330
2
100
AcDbEntity
  8
0
100
AcDbLine
 10
233.8487432104457
 20
4864.122885709599
 30
0.0
 11
233.8487432104457
 21
4834.372885709599
 31
0.0
  0
LWPOLYLINE
  5
94DA
330
2
100
AcDbEntity
  8
0
100
AcDbPolyline
 90
        4
 70
     1
 43
0.0
 10
291.5154432104455
 20
4866.997885709599
 10
291.5154432104455
 20
4831.497885709599
 10
220.0154432104455
 20
4831.497885709599
 10
220.0154432104455
 20
4866.997885709599
  0
LWPOLYLINE
  5
94DB
330
2
100
AcDbEntity
  8
0
100
AcDbPolyline
 90
        4
 70
     1
 43
0.0
 10
288.6404432104455
 20
4864.122885709599
 10
288.6404432104455
 20
4834.372885709599
 10
222.8904432104455
 20
4834.372885709599
 10
222.8904432104455
 20
4864.122885709599
  0
LWPOLYLINE
  5
94DC
330
2
100
AcDbEntity
  8
0
100
AcDbPolyline
 90
        4
 70
     1
 43
0.0
 10
290.8204432104458
 20
4866.3028857096
 10
290.8204432104458
 20
4832.192885709599
 10
220.7104432104452
 20
4832.192885709599
 10
220.7104432104452
 20
4866.3028857096
  0
LINE
  5
94DD
330
2
100
AcDbEntity
  8
0
100
AcDbLine
 10
290.8204432104458
 20
4832.192885709601
 30
0.0
 11
291.5154432104455
 21
4831.497885709599
 31
0.0
  0
LINE
  5
94DE
330
2
100
AcDbEntity
  8
0
100
AcDbLine
 10
220.7104432104443
 20
4832.192885709599
 30
0.0
 11
220.0154432104455
 21
4831.497885709599
 31
0.0
  0
LINE
  5
94DF
330
2
100
AcDbEntity
  8
0
100
AcDbLine
 10
222.8904432104455
 20
4854.206285709601
 30
0.0
 11
288.6404432104455
 21
4854.206285709601
 31
0.0
  0
LINE
  5
94E0
330
2
100
AcDbEntity
  8
0
100
AcDbLine
 10
290.8204432104458
 20
4866.3028857096
 30
0.0
 11
291.5154432104455
 21
4866.997885709599
 31
0.0
  0
LINE
  5
94E1
330
2
100
AcDbEntity
  8
0
100
AcDbLine
 10
220.0154432104455
 20
4866.997885709599
 30
0.0
 11
220.7104432104461
 21
4866.3028857096
 31
0.0
  0
LINE
  5
94E2
330
2
100
AcDbEntity
  8
0
100
AcDbLine
 10
222.8904432104455
 20
4844.2894857096
 30
0.0
 11
288.6404432104455
 21
4844.2894857096
 31
0.0
  0
LINE
  5
94E3
330
2
100
AcDbEntity
  8
0
100
AcDbLine
 10
244.807043210445
 20
4864.122885709599
 30
0.0
 11
244.807043210445
 21
4834.372885709599
 31
0.0
  0
LINE
  5
94E4
330
2
100
AcDbEntity
  8
0
100
AcDbLine
 10
277.6821432104452
 20
4864.122885709599
 30
0.0
 11
277.6821432104452
 21
4834.372885709599
 31
0.0
  0
LINE
  5
94E5
330
2
100
AcDbEntity
  8
0
100
AcDbLine
 10
266.7238432104459
 20
4864.122885709599
 30
0.0
 11
266.7238432104459
 21
4834.372885709599
 31
0.0
  0
LINE
  5
94E6
330
2
100
AcDbEntity
  8
0
100
AcDbLine
 10
255.7654432104455
 20
4864.122885709599
 30
0.0
 11
255.7654432104455
 21
4834.372885709599
 31
0.0
  0
LINE
  5
94E7
330
2
100
AcDbEntity
  8
0
100
AcDbLine
 10
197.1404432104455
 20
4953.122885709599
 30
0.0
 11
197.1404432104455
 21
4955.3028857096
 31
0.0
  0
LINE
  5
94E8
330
2
100
AcDbEntity
  8
0
100
AcDbLine
 10
137.3904432104455
 20
4953.122885709599
 30
0.0
 11
137.3904432104455
 21
4955.3028857096
 31
0.0
  0
LINE
  5
94E9
330
2
100
AcDbEntity
  8
0
100
AcDbLine
 10
137.3904432104455
 20
4935.372885709599
 30
0.0
 11
137.3904432104455
 21
4933.192885709599
 31
0.0
  0
LINE
  5
94EA
330
2
100
AcDbEntity
  8
0
100
AcDbLine
 10
197.1404432104455
 20
4935.372885709599
 30
0.0
 11
197.1404432104455
 21
4933.192885709599
 31
0.0
  0
LINE
  5
94EB
330
2
100
AcDbEntity
  8
0
100
AcDbLine
 10
197.1404432104455
 20
4864.122885709599
 30
0.0
 11
197.1404432104455
 21
4866.3028857096
 31
0.0
  0
LINE
  5
94EC
330
2
100
AcDbEntity
  8
0
100
AcDbLine
 10
197.1404432104455
 20
4834.372885709599
 30
0.0
 11
197.1404432104455
 21
4832.192885709599
 31
0.0
  0
LINE
  5
94ED
330
2
100
AcDbEntity
  8
0
100
AcDbLine
 10
137.3904432104455
 20
4834.372885709599
 30
0.0
 11
137.3904432104455
 21
4832.192885709599
 31
0.0
  0
LINE
  5
94EE
330
2
100
AcDbEntity
  8
0
100
AcDbLine
 10
137.3904432104455
 20
4864.122885709599
 30
0.0
 11
137.3904432104455
 21
4866.3028857096
 31
0.0
  0
LINE
  5
94EF
330
2
100
AcDbEntity
  8
0
100
AcDbLine
 10
288.6404432104455
 20
4864.122885709599
 30
0.0
 11
288.6404432104455
 21
4866.3028857096
 31
0.0
  0
LINE
  5
94F0
330
2
100
AcDbEntity
  8
0
100
AcDbLine
 10
288.6404432104455
 20
4834.372885709599
 30
0.0
 11
288.6404432104455
 21
4832.192885709599
 31
0.0
  0
LINE
  5
94F1
330
2
100
AcDbEntity
  8
0
100
AcDbLine
 10
222.8904432104455
 20
4834.372885709599
 30
0.0
 11
222.8904432104455
 21
4832.192885709599
 31
0.0
  0
LINE
  5
94F2
330
2
100
AcDbEntity
  8
0
100
AcDbLine
 10
222.8904432104455
 20
4864.122885709599
 30
0.0
 11
222.8904432104455
 21
4866.3028857096
 31
0.0
  0
LINE
  5
94F3
330
2
100
AcDbEntity
  8
0
100
AcDbLine
 10
233.8487432104457
 20
4953.122885709599
 30
0.0
 11
233.8487432104457
 21
4935.372885709599
 31
0.0
  0
LWPOLYLINE
  5
94F4
330
2
100
AcDbEntity
  8
0
100
AcDbPolyline
 90
        4
 70
     1
 43
0.0
 10
291.5154432104455
 20
4955.997885709599
 10
291.5154432104455
 20
4932.497885709599
 10
220.0154432104455
 20
4932.497885709599
 10
220.0154432104455
 20
4955.997885709599
  0
LWPOLYLINE
  5
94F5
330
2
100
AcDbEntity
  8
0
100
AcDbPolyline
 90
        4
 70
     1
 43
0.0
 10
288.6404432104455
 20
4953.122885709599
 10
288.6404432104455
 20
4935.372885709599
 10
222.8904432104455
 20
4935.372885709599
 10
222.8904432104455
 20
4953.122885709599
  0
LWPOLYLINE
  5
94F6
330
2
100
AcDbEntity
  8
0
100
AcDbPolyline
 90
        4
 70
     1
 43
0.0
 10
290.8204432104458
 20
4955.3028857096
 10
290.8204432104458
 20
4933.192885709599
 10
220.7104432104452
 20
4933.192885709599
 10
220.7104432104452
 20
4955.3028857096
  0
LINE
  5
94F7
330
2
100
AcDbEntity
  8
0
100
AcDbLine
 10
290.8204432104458
 20
4933.192885709601
 30
0.0
 11
291.5154432104455
 21
4932.497885709599
 31
0.0
  0
LINE
  5
94F8
330
2
100
AcDbEntity
  8
0
100
AcDbLine
 10
220.7104432104443
 20
4933.192885709599
 30
0.0
 11
220.0154432104455
 21
4932.497885709599
 31
0.0
  0
LINE
  5
94F9
330
2
100
AcDbEntity
  8
0
100
AcDbLine
 10
222.8904432104455
 20
4944.247885709599
 30
0.0
 11
288.6404432104455
 21
4944.247885709599
 31
0.0
  0
LINE
  5
94FA
330
2
100
AcDbEntity
  8
0
100
AcDbLine
 10
290.8204432104458
 20
4955.3028857096
 30
0.0
 11
291.5154432104455
 21
4955.997885709599
 31
0.0
  0
LINE
  5
94FB
330
2
100
AcDbEntity
  8
0
100
AcDbLine
 10
220.0154432104455
 20
4955.997885709599
 30
0.0
 11
220.7104432104461
 21
4955.3028857096
 31
0.0
  0
LINE
  5
94FC
330
2
100
AcDbEntity
  8
0
100
AcDbLine
 10
244.807043210445
 20
4953.122885709599
 30
0.0
 11
244.807043210445
 21
4935.372885709599
 31
0.0
  0
LINE
  5
94FD
330
2
100
AcDbEntity
  8
0
100
AcDbLine
 10
277.6821432104452
 20
4953.122885709599
 30
0.0
 11
277.6821432104452
 21
4935.372885709599
 31
0.0
  0
LINE
  5
94FE
330
2
100
AcDbEntity
  8
0
100
AcDbLine
 10
266.7238432104459
 20
4953.122885709599
 30
0.0
 11
266.7238432104459
 21
4935.372885709599
 31
0.0
  0
LINE
  5
94FF
330
2
100
AcDbEntity
  8
0
100
AcDbLine
 10
255.7654432104455
 20
4953.122885709599
 30
0.0
 11
255.7654432104455
 21
4935.372885709599
 31
0.0
  0
LINE
  5
9500
330
2
100
AcDbEntity
  8
0
100
AcDbLine
 10
288.6404432104455
 20
4953.122885709599
 30
0.0
 11
288.6404432104455
 21
4955.3028857096
 31
0.0
  0
LINE
  5
9501
330
2
100
AcDbEntity
  8
0
100
AcDbLine
 10
222.8904432104455
 20
4953.122885709599
 30
0.0
 11
222.8904432104455
 21
4955.3028857096
 31
0.0
  0
LINE
  5
9502
330
2
100
AcDbEntity
  8
0
100
AcDbLine
 10
222.8904432104455
 20
4935.372885709599
 30
0.0
 11
222.8904432104455
 21
4933.192885709599
 31
0.0
  0
LINE
  5
9503
330
2
100
AcDbEntity
  8
0
100
AcDbLine
 10
288.6404432104455
 20
4935.372885709599
 30
0.0
 11
288.6404432104455
 21
4933.192885709599
 31
0.0
  0
LINE
  5
9504
330
2
100
AcDbEntity
  8
0
100
AcDbLine
 10
147.3487432104457
 20
4911.622885709599
 30
0.0
 11
147.3487432104457
 21
4887.872885709599
 31
0.0
  0
LWPOLYLINE
  5
9505
330
2
100
AcDbEntity
  8
0
100
AcDbPolyline
 90
        4
 70
     1
 43
0.0
 10
200.0154432104455
 20
4914.497885709599
 10
200.0154432104455
 20
4884.997885709599
 10
134.5154432104455
 20
4884.997885709599
 10
134.5154432104455
 20
4914.497885709599
  0
LWPOLYLINE
  5
9506
330
2
100
AcDbEntity
  8
0
100
AcDbPolyline
 90
        4
 70
     1
 43
0.0
 10
197.1404432104455
 20
4911.622885709599
 10
197.1404432104455
 20
4887.872885709599
 10
137.3904432104455
 20
4887.872885709599
 10
137.3904432104455
 20
4911.622885709599
  0
LWPOLYLINE
  5
9507
330
2
100
AcDbEntity
  8
0
100
AcDbPolyline
 90
        4
 70
     1
 43
0.0
 10
199.3204432104458
 20
4913.8028857096
 10
199.3204432104458
 20
4885.692885709599
 10
135.2104432104452
 20
4885.692885709599
 10
135.2104432104452
 20
4913.8028857096
  0
LINE
  5
9508
330
2
100
AcDbEntity
  8
0
100
AcDbLine
 10
199.3204432104458
 20
4885.692885709601
 30
0.0
 11
200.0154432104455
 21
4884.997885709599
 31
0.0
  0
LINE
  5
9509
330
2
100
AcDbEntity
  8
0
100
AcDbLine
 10
135.2104432104443
 20
4885.692885709599
 30
0.0
 11
134.5154432104455
 21
4884.997885709599
 31
0.0
  0
LINE
  5
950A
330
2
100
AcDbEntity
  8
0
100
AcDbLine
 10
137.3904432104455
 20
4899.747885709599
 30
0.0
 11
197.1404432104455
 21
4899.747885709599
 31
0.0
  0
LINE
  5
950B
330
2
100
AcDbEntity
  8
0
100
AcDbLine
 10
199.3204432104458
 20
4913.8028857096
 30
0.0
 11
200.0154432104455
 21
4914.497885709599
 31
0.0
  0
LINE
  5
950C
330
2
100
AcDbEntity
  8
0
100
AcDbLine
 10
134.5154432104455
 20
4914.497885709599
 30
0.0
 11
135.2104432104461
 21
4913.8028857096
 31
0.0
  0
LINE
  5
950D
330
2
100
AcDbEntity
  8
0
100
AcDbLine
 10
157.307043210445
 20
4911.622885709599
 30
0.0
 11
157.307043210445
 21
4887.872885709599
 31
0.0
  0
LINE
  5
950E
330
2
100
AcDbEntity
  8
0
100
AcDbLine
 10
187.1821432104452
 20
4911.622885709599
 30
0.0
 11
187.1821432104452
 21
4887.872885709599
 31
0.0
  0
LINE
  5
950F
330
2
100
AcDbEntity
  8
0
100
AcDbLine
 10
177.2238432104459
 20
4911.622885709599
 30
0.0
 11
177.2238432104459
 21
4887.872885709599
 31
0.0
  0
LINE
  5
9510
330
2
100
AcDbEntity
  8
0
100
AcDbLine
 10
167.2654432104455
 20
4911.622885709599
 30
0.0
 11
167.2654432104455
 21
4887.872885709599
 31
0.0
  0
LINE
  5
9511
330
2
100
AcDbEntity
  8
0
100
AcDbLine
 10
197.1404432104455
 20
4911.622885709599
 30
0.0
 11
197.1404432104455
 21
4913.8028857096
 31
0.0
  0
LINE
  5
9512
330
2
100
AcDbEntity
  8
0
100
AcDbLine
 10
137.3904432104455
 20
4911.622885709599
 30
0.0
 11
137.3904432104455
 21
4913.8028857096
 31
0.0
  0
LINE
  5
9513
330
2
100
AcDbEntity
  8
0
100
AcDbLine
 10
137.3904432104455
 20
4887.872885709599
 30
0.0
 11
137.3904432104455
 21
4885.692885709599
 31
0.0
  0
LINE
  5
9514
330
2
100
AcDbEntity
  8
0
100
AcDbLine
 10
197.1404432104455
 20
4887.872885709599
 30
0.0
 11
197.1404432104455
 21
4885.692885709599
 31
0.0
  0
LINE
  5
9515
330
2
100
AcDbEntity
  8
0
100
AcDbLine
 10
233.8487432104457
 20
4911.622885709599
 30
0.0
 11
233.8487432104457
 21
4887.872885709599
 31
0.0
  0
LWPOLYLINE
  5
9516
330
2
100
AcDbEntity
  8
0
100
AcDbPolyline
 90
        4
 70
     1
 43
0.0
 10
291.5154432104455
 20
4914.497885709599
 10
291.5154432104455
 20
4884.997885709599
 10
220.0154432104455
 20
4884.997885709599
 10
220.0154432104455
 20
4914.497885709599
  0
LWPOLYLINE
  5
9517
330
2
100
AcDbEntity
  8
0
100
AcDbPolyline
 90
        4
 70
     1
 43
0.0
 10
288.6404432104455
 20
4911.622885709599
 10
288.6404432104455
 20
4887.872885709599
 10
222.8904432104455
 20
4887.872885709599
 10
222.8904432104455
 20
4911.622885709599
  0
LWPOLYLINE
  5
9518
330
2
100
AcDbEntity
  8
0
100
AcDbPolyline
 90
        4
 70
     1
 43
0.0
 10
290.8204432104458
 20
4913.8028857096
 10
290.8204432104458
 20
4885.692885709599
 10
220.7104432104452
 20
4885.692885709599
 10
220.7104432104452
 20
4913.8028857096
  0
LINE
  5
9519
330
2
100
AcDbEntity
  8
0
100
AcDbLine
 10
290.8204432104458
 20
4885.692885709601
 30
0.0
 11
291.5154432104455
 21
4884.997885709599
 31
0.0
  0
LINE
  5
951A
330
2
100
AcDbEntity
  8
0
100
AcDbLine
 10
220.7104432104443
 20
4885.692885709599
 30
0.0
 11
220.0154432104455
 21
4884.997885709599
 31
0.0
  0
LINE
  5
951B
330
2
100
AcDbEntity
  8
0
100
AcDbLine
 10
222.8904432104455
 20
4899.747885709599
 30
0.0
 11
288.6404432104455
 21
4899.747885709599
 31
0.0
  0
LINE
  5
951C
330
2
100
AcDbEntity
  8
0
100
AcDbLine
 10
290.8204432104458
 20
4913.8028857096
 30
0.0
 11
291.5154432104455
 21
4914.497885709599
 31
0.0
  0
LINE
  5
951D
330
2
100
AcDbEntity
  8
0
100
AcDbLine
 10
220.0154432104455
 20
4914.497885709599
 30
0.0
 11
220.7104432104461
 21
4913.8028857096
 31
0.0
  0
LINE
  5
951E
330
2
100
AcDbEntity
  8
0
100
AcDbLine
 10
244.807043210445
 20
4911.622885709599
 30
0.0
 11
244.807043210445
 21
4887.872885709599
 31
0.0
  0
LINE
  5
951F
330
2
100
AcDbEntity
  8
0
100
AcDbLine
 10
277.6821432104452
 20
4911.622885709599
 30
0.0
 11
277.6821432104452
 21
4887.872885709599
 31
0.0
  0
LINE
  5
9520
330
2
100
AcDbEntity
  8
0
100
AcDbLine
 10
266.7238432104459
 20
4911.622885709599
 30
0.0
 11
266.7238432104459
 21
4887.872885709599
 31
0.0
  0
LINE
  5
9521
330
2
100
AcDbEntity
  8
0
100
AcDbLine
 10
255.7654432104455
 20
4911.622885709599
 30
0.0
 11
255.7654432104455
 21
4887.872885709599
 31
0.0
  0
LINE
  5
9522
330
2
100
AcDbEntity
  8
0
100
AcDbLine
 10
288.6404432104455
 20
4911.622885709599
 30
0.0
 11
288.6404432104455
 21
4913.8028857096
 31
0.0
  0
LINE
  5
9523
330
2
100
AcDbEntity
  8
0
100
AcDbLine
 10
222.8904432104455
 20
4911.622885709599
 30
0.0
 11
222.8904432104455
 21
4913.8028857096
 31
0.0
  0
LINE
  5
9524
330
2
100
AcDbEntity
  8
0
100
AcDbLine
 10
222.8904432104455
 20
4887.872885709599
 30
0.0
 11
222.8904432104455
 21
4885.692885709599
 31
0.0
  0
LINE
  5
9525
330
2
100
AcDbEntity
  8
0
100
AcDbLine
 10
288.6404432104455
 20
4887.872885709599
 30
0.0
 11
288.6404432104455
 21
4885.692885709599
 31
0.0
  0
LINE
  5
9526
330
2
100
AcDbEntity
  8
0
100
AcDbLine
 10
147.3487432104457
 20
5026.122885709599
 30
0.0
 11
147.3487432104457
 21
5014.372885709599
 31
0.0
  0
LWPOLYLINE
  5
9527
330
2
100
AcDbEntity
  8
0
100
AcDbPolyline
 90
        4
 70
     1
 43
0.0
 10
200.0154432104455
 20
5028.997885709599
 10
200.0154432104455
 20
5011.497885709599
 10
134.5154432104455
 20
5011.497885709599
 10
134.5154432104455
 20
5028.997885709599
  0
LWPOLYLINE
  5
9528
330
2
100
AcDbEntity
  8
0
100
AcDbPolyline
 90
        4
 70
     1
 43
0.0
 10
197.1404432104455
 20
5026.122885709599
 10
197.1404432104455
 20
5014.372885709599
 10
137.3904432104455
 20
5014.372885709599
 10
137.3904432104455
 20
5026.122885709599
  0
LWPOLYLINE
  5
9529
330
2
100
AcDbEntity
  8
0
100
AcDbPolyline
 90
        4
 70
     1
 43
0.0
 10
199.3204432104458
 20
5028.3028857096
 10
199.3204432104458
 20
5012.192885709599
 10
135.2104432104452
 20
5012.192885709599
 10
135.2104432104452
 20
5028.3028857096
  0
LINE
  5
952A
330
2
100
AcDbEntity
  8
0
100
AcDbLine
 10
199.3204432104458
 20
5012.192885709601
 30
0.0
 11
200.0154432104455
 21
5011.497885709599
 31
0.0
  0
LINE
  5
952B
330
2
100
AcDbEntity
  8
0
100
AcDbLine
 10
135.2104432104443
 20
5012.192885709599
 30
0.0
 11
134.5154432104455
 21
5011.497885709599
 31
0.0
  0
LINE
  5
952C
330
2
100
AcDbEntity
  8
0
100
AcDbLine
 10
199.3204432104458
 20
5028.3028857096
 30
0.0
 11
200.0154432104455
 21
5028.997885709599
 31
0.0
  0
LINE
  5
952D
330
2
100
AcDbEntity
  8
0
100
AcDbLine
 10
134.5154432104455
 20
5028.997885709599
 30
0.0
 11
135.2104432104461
 21
5028.3028857096
 31
0.0
  0
LINE
  5
952E
330
2
100
AcDbEntity
  8
0
100
AcDbLine
 10
157.307043210445
 20
5026.122885709599
 30
0.0
 11
157.307043210445
 21
5014.372885709599
 31
0.0
  0
LINE
  5
952F
330
2
100
AcDbEntity
  8
0
100
AcDbLine
 10
187.1821432104452
 20
5026.122885709599
 30
0.0
 11
187.1821432104452
 21
5014.372885709599
 31
0.0
  0
LINE
  5
9530
330
2
100
AcDbEntity
  8
0
100
AcDbLine
 10
177.2238432104459
 20
5026.122885709599
 30
0.0
 11
177.2238432104459
 21
5014.372885709599
 31
0.0
  0
LINE
  5
9531
330
2
100
AcDbEntity
  8
0
100
AcDbLine
 10
167.2654432104455
 20
5026.122885709599
 30
0.0
 11
167.2654432104455
 21
5014.372885709599
 31
0.0
  0
LINE
  5
9532
330
2
100
AcDbEntity
  8
0
100
AcDbLine
 10
197.1404432104455
 20
5026.122885709599
 30
0.0
 11
197.1404432104455
 21
5028.3028857096
 31
0.0
  0
LINE
  5
9533
330
2
100
AcDbEntity
  8
0
100
AcDbLine
 10
137.3904432104455
 20
5026.122885709599
 30
0.0
 11
137.3904432104455
 21
5028.3028857096
 31
0.0
  0
LINE
  5
9534
330
2
100
AcDbEntity
  8
0
100
AcDbLine
 10
137.3904432104455
 20
5014.372885709599
 30
0.0
 11
137.3904432104455
 21
5012.192885709599
 31
0.0
  0
LINE
  5
9535
330
2
100
AcDbEntity
  8
0
100
AcDbLine
 10
197.1404432104455
 20
5014.372885709599
 30
0.0
 11
197.1404432104455
 21
5012.192885709599
 31
0.0
  0
LINE
  5
9536
330
2
100
AcDbEntity
  8
0
100
AcDbLine
 10
233.8487432104457
 20
5026.122885709599
 30
0.0
 11
233.8487432104457
 21
5014.372885709599
 31
0.0
  0
LWPOLYLINE
  5
9537
330
2
100
AcDbEntity
  8
0
100
AcDbPolyline
 90
        4
 70
     1
 43
0.0
 10
291.5154432104455
 20
5028.997885709599
 10
291.5154432104455
 20
5011.497885709599
 10
220.0154432104455
 20
5011.497885709599
 10
220.0154432104455
 20
5028.997885709599
  0
LWPOLYLINE
  5
9538
330
2
100
AcDbEntity
  8
0
100
AcDbPolyline
 90
        4
 70
     1
 43
0.0
 10
288.6404432104455
 20
5026.122885709599
 10
288.6404432104455
 20
5014.372885709599
 10
222.8904432104455
 20
5014.372885709599
 10
222.8904432104455
 20
5026.122885709599
  0
LWPOLYLINE
  5
9539
330
2
100
AcDbEntity
  8
0
100
AcDbPolyline
 90
        4
 70
     1
 43
0.0
 10
290.8204432104458
 20
5028.3028857096
 10
290.8204432104458
 20
5012.192885709599
 10
220.7104432104452
 20
5012.192885709599
 10
220.7104432104452
 20
5028.3028857096
  0
LINE
  5
953A
330
2
100
AcDbEntity
  8
0
100
AcDbLine
 10
290.8204432104458
 20
5012.192885709601
 30
0.0
 11
291.5154432104455
 21
5011.497885709599
 31
0.0
  0
LINE
  5
953B
330
2
100
AcDbEntity
  8
0
100
AcDbLine
 10
220.7104432104443
 20
5012.192885709599
 30
0.0
 11
220.0154432104455
 21
5011.497885709599
 31
0.0
  0
LINE
  5
953C
330
2
100
AcDbEntity
  8
0
100
AcDbLine
 10
290.8204432104458
 20
5028.3028857096
 30
0.0
 11
291.5154432104455
 21
5028.997885709599
 31
0.0
  0
LINE
  5
953D
330
2
100
AcDbEntity
  8
0
100
AcDbLine
 10
220.0154432104455
 20
5028.997885709599
 30
0.0
 11
220.7104432104461
 21
5028.3028857096
 31
0.0
  0
LINE
  5
953E
330
2
100
AcDbEntity
  8
0
100
AcDbLine
 10
244.807043210445
 20
5026.122885709599
 30
0.0
 11
244.807043210445
 21
5014.372885709599
 31
0.0
  0
LINE
  5
953F
330
2
100
AcDbEntity
  8
0
100
AcDbLine
 10
277.6821432104452
 20
5026.122885709599
 30
0.0
 11
277.6821432104452
 21
5014.372885709599
 31
0.0
  0
LINE
  5
9540
330
2
100
AcDbEntity
  8
0
100
AcDbLine
 10
266.7238432104459
 20
5026.122885709599
 30
0.0
 11
266.7238432104459
 21
5014.372885709599
 31
0.0
  0
LINE
  5
9541
330
2
100
AcDbEntity
  8
0
100
AcDbLine
 10
255.7654432104455
 20
5026.122885709599
 30
0.0
 11
255.7654432104455
 21
5014.372885709599
 31
0.0
  0
LINE
  5
9542
330
2
100
AcDbEntity
  8
0
100
AcDbLine
 10
288.6404432104455
 20
5026.122885709599
 30
0.0
 11
288.6404432104455
 21
5028.3028857096
 31
0.0
  0
LINE
  5
9543
330
2
100
AcDbEntity
  8
0
100
AcDbLine
 10
222.8904432104455
 20
5026.122885709599
 30
0.0
 11
222.8904432104455
 21
5028.3028857096
 31
0.0
  0
LINE
  5
9544
330
2
100
AcDbEntity
  8
0
100
AcDbLine
 10
222.8904432104455
 20
5014.372885709599
 30
0.0
 11
222.8904432104455
 21
5012.192885709599
 31
0.0
  0
LINE
  5
9545
330
2
100
AcDbEntity
  8
0
100
AcDbLine
 10
288.6404432104455
 20
5014.372885709599
 30
0.0
 11
288.6404432104455
 21
5012.192885709599
 31
0.0
  0
LINE
  5
9546
330
2
100
AcDbEntity
  8
0
100
AcDbLine
 10
147.3487432104457
 20
4990.622885709599
 30
0.0
 11
147.3487432104457
 21
4976.872885709599
 31
0.0
  0
LWPOLYLINE
  5
9547
330
2
100
AcDbEntity
  8
0
100
AcDbPolyline
 90
        4
 70
     1
 43
0.0
 10
200.0154432104455
 20
4993.497885709599
 10
200.0154432104455
 20
4973.997885709599
 10
134.5154432104455
 20
4973.997885709599
 10
134.5154432104455
 20
4993.497885709599
  0
LWPOLYLINE
  5
9548
330
2
100
AcDbEntity
  8
0
100
AcDbPolyline
 90
        4
 70
     1
 43
0.0
 10
197.1404432104455
 20
4990.622885709599
 10
197.1404432104455
 20
4976.872885709599
 10
137.3904432104455
 20
4976.872885709599
 10
137.3904432104455
 20
4990.622885709599
  0
LWPOLYLINE
  5
9549
330
2
100
AcDbEntity
  8
0
100
AcDbPolyline
 90
        4
 70
     1
 43
0.0
 10
199.3204432104458
 20
4992.8028857096
 10
199.3204432104458
 20
4974.692885709599
 10
135.2104432104452
 20
4974.692885709599
 10
135.2104432104452
 20
4992.8028857096
  0
LINE
  5
954A
330
2
100
AcDbEntity
  8
0
100
AcDbLine
 10
199.3204432104458
 20
4974.692885709601
 30
0.0
 11
200.0154432104455
 21
4973.997885709599
 31
0.0
  0
LINE
  5
954B
330
2
100
AcDbEntity
  8
0
100
AcDbLine
 10
135.2104432104443
 20
4974.692885709599
 30
0.0
 11
134.5154432104455
 21
4973.997885709599
 31
0.0
  0
LINE
  5
954C
330
2
100
AcDbEntity
  8
0
100
AcDbLine
 10
199.3204432104458
 20
4992.8028857096
 30
0.0
 11
200.0154432104455
 21
4993.497885709599
 31
0.0
  0
LINE
  5
954D
330
2
100
AcDbEntity
  8
0
100
AcDbLine
 10
134.5154432104455
 20
4993.497885709599
 30
0.0
 11
135.2104432104461
 21
4992.8028857096
 31
0.0
  0
LINE
  5
954E
330
2
100
AcDbEntity
  8
0
100
AcDbLine
 10
157.307043210445
 20
4990.622885709599
 30
0.0
 11
157.307043210445
 21
4976.872885709599
 31
0.0
  0
LINE
  5
954F
330
2
100
AcDbEntity
  8
0
100
AcDbLine
 10
187.1821432104452
 20
4990.622885709599
 30
0.0
 11
187.1821432104452
 21
4976.872885709599
 31
0.0
  0
LINE
  5
9550
330
2
100
AcDbEntity
  8
0
100
AcDbLine
 10
177.2238432104459
 20
4990.622885709599
 30
0.0
 11
177.2238432104459
 21
4976.872885709599
 31
0.0
  0
LINE
  5
9551
330
2
100
AcDbEntity
  8
0
100
AcDbLine
 10
167.2654432104455
 20
4990.622885709599
 30
0.0
 11
167.2654432104455
 21
4976.872885709599
 31
0.0
  0
LINE
  5
9552
330
2
100
AcDbEntity
  8
0
100
AcDbLine
 10
197.1404432104455
 20
4990.622885709599
 30
0.0
 11
197.1404432104455
 21
4992.8028857096
 31
0.0
  0
LINE
  5
9553
330
2
100
AcDbEntity
  8
0
100
AcDbLine
 10
137.3904432104455
 20
4990.622885709599
 30
0.0
 11
137.3904432104455
 21
4992.8028857096
 31
0.0
  0
LINE
  5
9554
330
2
100
AcDbEntity
  8
0
100
AcDbLine
 10
137.3904432104455
 20
4976.872885709599
 30
0.0
 11
137.3904432104455
 21
4974.692885709599
 31
0.0
  0
LINE
  5
9555
330
2
100
AcDbEntity
  8
0
100
AcDbLine
 10
197.1404432104455
 20
4976.872885709599
 30
0.0
 11
197.1404432104455
 21
4974.692885709599
 31
0.0
  0
LINE
  5
9556
330
2
100
AcDbEntity
  8
0
100
AcDbLine
 10
233.8487432104457
 20
4990.622885709599
 30
0.0
 11
233.8487432104457
 21
4976.872885709599
 31
0.0
  0
LWPOLYLINE
  5
9557
330
2
100
AcDbEntity
  8
0
100
AcDbPolyline
 90
        4
 70
     1
 43
0.0
 10
291.5154432104455
 20
4993.497885709599
 10
291.5154432104455
 20
4973.997885709599
 10
220.0154432104455
 20
4973.997885709599
 10
220.0154432104455
 20
4993.497885709599
  0
LWPOLYLINE
  5
9558
330
2
100
AcDbEntity
  8
0
100
AcDbPolyline
 90
        4
 70
     1
 43
0.0
 10
288.6404432104455
 20
4990.622885709599
 10
288.6404432104455
 20
4976.872885709599
 10
222.8904432104455
 20
4976.872885709599
 10
222.8904432104455
 20
4990.622885709599
  0
LWPOLYLINE
  5
9559
330
2
100
AcDbEntity
  8
0
100
AcDbPolyline
 90
        4
 70
     1
 43
0.0
 10
290.8204432104458
 20
4992.8028857096
 10
290.8204432104458
 20
4974.692885709599
 10
220.7104432104452
 20
4974.692885709599
 10
220.7104432104452
 20
4992.8028857096
  0
LINE
  5
955A
330
2
100
AcDbEntity
  8
0
100
AcDbLine
 10
290.8204432104458
 20
4974.692885709601
 30
0.0
 11
291.5154432104455
 21
4973.997885709599
 31
0.0
  0
LINE
  5
955B
330
2
100
AcDbEntity
  8
0
100
AcDbLine
 10
220.7104432104443
 20
4974.692885709599
 30
0.0
 11
220.0154432104455
 21
4973.997885709599
 31
0.0
  0
LINE
  5
955C
330
2
100
AcDbEntity
  8
0
100
AcDbLine
 10
290.8204432104458
 20
4992.8028857096
 30
0.0
 11
291.5154432104455
 21
4993.497885709599
 31
0.0
  0
LINE
  5
955D
330
2
100
AcDbEntity
  8
0
100
AcDbLine
 10
220.0154432104455
 20
4993.497885709599
 30
0.0
 11
220.7104432104461
 21
4992.8028857096
 31
0.0
  0
LINE
  5
955E
330
2
100
AcDbEntity
  8
0
100
AcDbLine
 10
244.807043210445
 20
4990.622885709599
 30
0.0
 11
244.807043210445
 21
4976.872885709599
 31
0.0
  0
LINE
  5
955F
330
2
100
AcDbEntity
  8
0
100
AcDbLine
 10
277.6821432104452
 20
4990.622885709599
 30
0.0
 11
277.6821432104452
 21
4976.872885709599
 31
0.0
  0
LINE
  5
9560
330
2
100
AcDbEntity
  8
0
100
AcDbLine
 10
266.7238432104459
 20
4990.622885709599
 30
0.0
 11
266.7238432104459
 21
4976.872885709599
 31
0.0
  0
LINE
  5
9561
330
2
100
AcDbEntity
  8
0
100
AcDbLine
 10
255.7654432104455
 20
4990.622885709599
 30
0.0
 11
255.7654432104455
 21
4976.872885709599
 31
0.0
  0
LINE
  5
9562
330
2
100
AcDbEntity
  8
0
100
AcDbLine
 10
288.6404432104455
 20
4990.622885709599
 30
0.0
 11
288.6404432104455
 21
4992.8028857096
 31
0.0
  0
LINE
  5
9563
330
2
100
AcDbEntity
  8
0
100
AcDbLine
 10
222.8904432104455
 20
4990.622885709599
 30
0.0
 11
222.8904432104455
 21
4992.8028857096
 31
0.0
  0
LINE
  5
9564
330
2
100
AcDbEntity
  8
0
100
AcDbLine
 10
222.8904432104455
 20
4976.872885709599
 30
0.0
 11
222.8904432104455
 21
4974.692885709599
 31
0.0
  0
LINE
  5
9565
330
2
100
AcDbEntity
  8
0
100
AcDbLine
 10
288.6404432104455
 20
4976.872885709599
 30
0.0
 11
288.6404432104455
 21
4974.692885709599
 31
0.0
  0
LINE
  5
9566
330
2
100
AcDbEntity
  8
0
100
AcDbLine
 10
721.0154432104455
 20
5352.819179017895
 30
0.0
 11
83.17475951956294
 21
5352.819179017895
 31
0.0
  0
LINE
  5
9567
330
2
100
AcDbEntity
  8
0
100
AcDbLine
 10
721.0154432104455
 20
5400.819179017895
 30
0.0
 11
35.17475951956294
 21
5400.819179017895
 31
0.0
  0
LINE
  5
9568
330
2
100
AcDbEntity
  8
0
100
AcDbLine
 10
721.0154432104455
 20
5388.819179017895
 30
0.0
 11
47.17475951956294
 21
5388.819179017895
 31
0.0
  0
LINE
  5
9569
330
2
100
AcDbEntity
  8
0
100
AcDbLine
 10
721.0154432104455
 20
5376.819179017895
 30
0.0
 11
59.17475951956294
 21
5376.819179017895
 31
0.0
  0
LINE
  5
956A
330
2
100
AcDbEntity
  8
0
100
AcDbLine
 10
721.0154432104455
 20
5364.819179017895
 30
0.0
 11
71.17475951956294
 21
5364.819179017895
 31
0.0
  0
TEXT
  5
956B
330
2
100
AcDbEntity
  8
0
100
AcDbText
 10
136.0533701905679
 20
5379.819179017895
 30
0.0
 40
6.0
  1
1'-6"
  7
ARIAL
 72
     1
 11
144.3985270800631
 21
5382.819179017895
 31
0.0
100
AcDbText
 73
     2
  0
TEXT
  5
956C
330
2
100
AcDbEntity
  8
0
100
AcDbText
 10
215.9741344347722
 20
5379.819179017895
 30
0.0
 40
6.0
  1
2'-0"
  7
ARIAL
 72
     1
 11
224.3192913242674
 21
5382.819179017895
 31
0.0
100
AcDbText
 73
     2
  0
TEXT
  5
956D
330
2
100
AcDbEntity
  8
0
100
AcDbText
 10
137.4060304907043
 20
5367.819179017895
 30
0.0
 40
6.0
  1
457
  7
ARIAL
 72
     1
 11
144.3985270800631
 21
5370.819179017895
 31
0.0
100
AcDbText
 73
     2
  0
TEXT
  5
956E
330
2
100
AcDbEntity
  8
0
100
AcDbText
 10
131.2586907908407
 20
5355.819179017895
 30
0.0
 40
6.0
  1
12 3/4"
  7
ARIAL
 72
     1
 11
144.3985270800631
 21
5358.819179017895
 31
0.0
100
AcDbText
 73
     2
  0
TEXT
  5
956F
330
2
100
AcDbEntity
  8
0
100
AcDbText
 10
217.3267947349086
 20
5367.819179017895
 30
0.0
 40
6.0
  1
610
  7
ARIAL
 72
     1
 11
224.3192913242674
 21
5370.819179017895
 31
0.0
100
AcDbText
 73
     2
  0
TEXT
  5
9570
330
2
100
AcDbEntity
  8
0
100
AcDbText
 10
211.179455035045
 20
5355.819179017895
 30
0.0
 40
6.0
  1
18 3/4"
  7
ARIAL
 72
     1
 11
224.3192913242674
 21
5358.819179017895
 31
0.0
100
AcDbText
 73
     2
  0
TEXT
  5
9571
330
2
100
AcDbEntity
  8
0
100
AcDbText
 10
129.0629199859294
 20
5391.819179017895
 30
0.0
 40
6.0
  1
1'-5 1/2"
  7
ARIAL
 72
     1
 11
144.3985270800631
 21
5394.819179017895
 31
0.0
100
AcDbText
 73
     2
  0
TEXT
  5
9572
330
2
100
AcDbEntity
  8
0
100
AcDbText
 10
206.6528520336808
 20
5391.819179017895
 30
0.0
 40
6.0
  1
1'-11 1/2"
  7
ARIAL
 72
     1
 11
224.3192913242674
 21
5394.819179017895
 31
0.0
100
AcDbText
 73
     2
  0
TEXT
  5
9573
330
2
100
AcDbEntity
  8
0
100
AcDbText
 10
260.7693301994304
 20
5379.819179017895
 30
0.0
 40
6.0
  1
2'-4"
  7
ARIAL
 72
     1
 11
269.1144870889257
 21
5382.819179017895
 31
0.0
100
AcDbText
 73
     2
  0
TEXT
  5
9574
330
2
100
AcDbEntity
  8
0
100
AcDbText
 10
309.3312324914878
 20
5379.819179017895
 30
0.0
 40
6.0
  1
2'-6"
  7
ARIAL
 72
     1
 11
317.676389380983
 21
5382.819179017895
 31
0.0
100
AcDbText
 73
     2
  0
TEXT
  5
9575
330
2
100
AcDbEntity
  8
0
100
AcDbText
 10
255.9746507997033
 20
5355.819179017895
 30
0.0
 40
6.0
  1
22 3/4"
  7
ARIAL
 72
     1
 11
269.1144870889257
 21
5358.819179017895
 31
0.0
100
AcDbText
 73
     2
  0
TEXT
  5
9576
330
2
100
AcDbEntity
  8
0
100
AcDbText
 10
262.1219904995669
 20
5367.819179017895
 30
0.0
 40
6.0
  1
711
  7
ARIAL
 72
     1
 11
269.1144870889257
 21
5370.819179017895
 31
0.0
100
AcDbText
 73
     2
  0
TEXT
  5
9577
330
2
100
AcDbEntity
  8
0
100
AcDbText
 10
310.6838927916242
 20
5367.819179017895
 30
0.0
 40
6.0
  1
762
  7
ARIAL
 72
     1
 11
317.676389380983
 21
5370.819179017895
 31
0.0
100
AcDbText
 73
     2
  0
TEXT
  5
9578
330
2
100
AcDbEntity
  8
0
100
AcDbText
 10
304.5365530917606
 20
5355.819179017895
 30
0.0
 40
6.0
  1
24 3/4"
  7
ARIAL
 72
     1
 11
317.676389380983
 21
5358.819179017895
 31
0.0
100
AcDbText
 73
     2
  0
TEXT
  5
9579
330
2
100
AcDbEntity
  8
0
100
AcDbText
 10
253.778879994792
 20
5391.819179017895
 30
0.0
 40
6.0
  1
2'-3 1/2"
  7
ARIAL
 72
     1
 11
269.1144870889257
 21
5394.819179017895
 31
0.0
100
AcDbText
 73
     2
  0
TEXT
  5
957A
330
2
100
AcDbEntity
  8
0
100
AcDbText
 10
302.3407822868493
 20
5391.819179017895
 30
0.0
 40
6.0
  1
2'-5 1/2"
  7
ARIAL
 72
     1
 11
317.676389380983
 21
5394.819179017895
 31
0.0
100
AcDbText
 73
     2
  0
TEXT
  5
957B
330
2
100
AcDbEntity
  8
0
100
AcDbText
 10
413.8080973493879
 20
5379.819179017895
 30
0.0
 40
6.0
  1
3'-0"
  7
ARIAL
 72
     1
 11
422.1532542388832
 21
5382.819179017895
 31
0.0
100
AcDbText
 73
     2
  0
TEXT
  5
957C
330
2
100
AcDbEntity
  8
0
100
AcDbText
 10
360.3875011343262
 20
5379.819179017895
 30
0.0
 40
6.0
  1
2'-8"
  7
ARIAL
 72
     1
 11
368.7326580238214
 21
5382.819179017895
 31
0.0
100
AcDbText
 73
     2
  0
TEXT
  5
957D
330
2
100
AcDbEntity
  8
0
100
AcDbText
 10
361.7401614344626
 20
5367.819179017895
 30
0.0
 40
6.0
  1
813
  7
ARIAL
 72
     1
 11
368.7326580238214
 21
5370.819179017895
 31
0.0
100
AcDbText
 73
     2
  0
TEXT
  5
957E
330
2
100
AcDbEntity
  8
0
100
AcDbText
 10
355.592821734599
 20
5355.819179017895
 30
0.0
 40
6.0
  1
26 3/4"
  7
ARIAL
 72
     1
 11
368.7326580238214
 21
5358.819179017895
 31
0.0
100
AcDbText
 73
     2
  0
TEXT
  5
957F
330
2
100
AcDbEntity
  8
0
100
AcDbText
 10
415.1607576495244
 20
5367.819179017895
 30
0.0
 40
6.0
  1
914
  7
ARIAL
 72
     1
 11
422.1532542388832
 21
5370.819179017895
 31
0.0
100
AcDbText
 73
     2
  0
TEXT
  5
9580
330
2
100
AcDbEntity
  8
0
100
AcDbText
 10
409.0134179496608
 20
5355.819179017895
 30
0.0
 40
6.0
  1
30 3/4"
  7
ARIAL
 72
     1
 11
422.1532542388832
 21
5358.819179017895
 31
0.0
100
AcDbText
 73
     2
  0
TEXT
  5
9581
330
2
100
AcDbEntity
  8
0
100
AcDbText
 10
353.3970509296877
 20
5391.819179017895
 30
0.0
 40
6.0
  1
2'-7 1/2"
  7
ARIAL
 72
     1
 11
368.7326580238214
 21
5394.819179017895
 31
0.0
100
AcDbText
 73
     2
  0
TEXT
  5
9582
330
2
100
AcDbEntity
  8
0
100
AcDbText
 10
404.4868149482965
 20
5391.819179017895
 30
0.0
 40
6.0
  1
2'-11 1/2"
  7
ARIAL
 72
     1
 11
422.1532542388832
 21
5394.819179017895
 31
0.0
100
AcDbText
 73
     2
  0
TEXT
  5
9583
330
2
100
AcDbEntity
  8
0
100
AcDbText
 10
173.7213406491373
 20
5379.819179017895
 30
0.0
 40
6.0
  1
1'-8"
  7
ARIAL
 72
     1
 11
182.0664975386326
 21
5382.819179017895
 31
0.0
100
AcDbText
 73
     2
  0
TEXT
  5
9584
330
2
100
AcDbEntity
  8
0
100
AcDbText
 10
175.0740009492738
 20
5367.819179017895
 30
0.0
 40
6.0
  1
508
  7
ARIAL
 72
     1
 11
182.0664975386326
 21
5370.819179017895
 31
0.0
100
AcDbText
 73
     2
  0
TEXT
  5
9585
330
2
100
AcDbEntity
  8
0
100
AcDbText
 10
168.9266612494102
 20
5355.819179017895
 30
0.0
 40
6.0
  1
14 3/4"
  7
ARIAL
 72
     1
 11
182.0664975386326
 21
5358.819179017895
 31
0.0
100
AcDbText
 73
     2
  0
TEXT
  5
9586
330
2
100
AcDbEntity
  8
0
100
AcDbText
 10
166.7308904444989
 20
5391.819179017895
 30
0.0
 40
6.0
  1
1'-7 1/2"
  7
ARIAL
 72
     1
 11
182.0664975386326
 21
5394.819179017895
 31
0.0
100
AcDbText
 73
     2
  0
TEXT
  5
9587
330
2
100
AcDbEntity
  8
0
100
AcDbText
 10
471.5286524454086
 20
5379.819179017895
 30
0.0
 40
6.0
  1
3'-6"
  7
ARIAL
 72
     1
 11
479.8738093349039
 21
5382.819179017895
 31
0.0
100
AcDbText
 73
     2
  0
TEXT
  5
9588
330
2
100
AcDbEntity
  8
0
100
AcDbText
 10
470.5504805490921
 20
5367.819179017895
 30
0.0
 40
6.0
  1
1067
  7
ARIAL
 72
     1
 11
479.8738093349039
 21
5370.819179017895
 31
0.0
100
AcDbText
 73
     2
  0
TEXT
  5
9589
330
2
100
AcDbEntity
  8
0
100
AcDbText
 10
466.7339730456815
 20
5355.819179017895
 30
0.0
 40
6.0
  1
36 3/4"
  7
ARIAL
 72
     1
 11
479.8738093349039
 21
5358.819179017895
 31
0.0
100
AcDbText
 73
     2
  0
TEXT
  5
958A
330
2
100
AcDbEntity
  8
0
100
AcDbText
 10
464.5382022407701
 20
5391.819179017895
 30
0.0
 40
6.0
  1
3'-5 1/2"
  7
ARIAL
 72
     1
 11
479.8738093349039
 21
5394.819179017895
 31
0.0
100
AcDbText
 73
     2
  0
TEXT
  5
958B
330
2
100
AcDbEntity
  8
0
100
AcDbText
 10
535.8139892501304
 20
5379.819179017895
 30
0.0
 40
6.0
  1
4'-0"
  7
ARIAL
 72
     1
 11
544.1591461396256
 21
5382.819179017895
 31
0.0
100
AcDbText
 73
     2
  0
TEXT
  5
958C
330
2
100
AcDbEntity
  8
0
100
AcDbText
 10
534.8358173538138
 20
5367.819179017895
 30
0.0
 40
6.0
  1
1219
  7
ARIAL
 72
     1
 11
544.1591461396256
 21
5370.819179017895
 31
0.0
100
AcDbText
 73
     2
  0
TEXT
  5
958D
330
2
100
AcDbEntity
  8
0
100
AcDbText
 10
531.0193098504033
 20
5355.819179017895
 30
0.0
 40
6.0
  1
42 3/4"
  7
ARIAL
 72
     1
 11
544.1591461396256
 21
5358.819179017895
 31
0.0
100
AcDbText
 73
     2
  0
TEXT
  5
958E
330
2
100
AcDbEntity
  8
0
100
AcDbText
 10
526.492706849039
 20
5391.819179017895
 30
0.0
 40
6.0
  1
3'-11 1/2"
  7
ARIAL
 72
     1
 11
544.1591461396256
 21
5394.819179017895
 31
0.0
100
AcDbText
 73
     2
  0
TEXT
  5
958F
330
2
100
AcDbEntity
  8
0
100
AcDbText
 10
607.1512306072937
 20
5379.819179017895
 30
0.0
 40
6.0
  1
4'-6"
  7
ARIAL
 72
     1
 11
615.4963874967889
 21
5382.819179017895
 31
0.0
100
AcDbText
 73
     2
  0
TEXT
  5
9590
330
2
100
AcDbEntity
  8
0
100
AcDbText
 10
606.1730587109771
 20
5367.819179017895
 30
0.0
 40
6.0
  1
1372
  7
ARIAL
 72
     1
 11
615.4963874967889
 21
5370.819179017895
 31
0.0
100
AcDbText
 73
     2
  0
TEXT
  5
9591
330
2
100
AcDbEntity
  8
0
100
AcDbText
 10
602.3565512075666
 20
5355.819179017895
 30
0.0
 40
6.0
  1
48 3/4"
  7
ARIAL
 72
     1
 11
615.4963874967889
 21
5358.819179017895
 31
0.0
100
AcDbText
 73
     2
  0
TEXT
  5
9592
330
2
100
AcDbEntity
  8
0
100
AcDbText
 10
600.1607804026552
 20
5391.819179017895
 30
0.0
 40
6.0
  1
4'-5 1/2"
  7
ARIAL
 72
     1
 11
615.4963874967889
 21
5394.819179017895
 31
0.0
100
AcDbText
 73
     2
  0
TEXT
  5
9593
330
2
100
AcDbEntity
  8
0
100
AcDbText
 10
683.20525262927
 20
5379.819179017895
 30
0.0
 40
6.0
  1
5'-0"
  7
ARIAL
 72
     1
 11
691.5504095187653
 21
5382.819179017895
 31
0.0
100
AcDbText
 73
     2
  0
TEXT
  5
9594
330
2
100
AcDbEntity
  8
0
100
AcDbText
 10
682.2270807329535
 20
5367.819179017895
 30
0.0
 40
6.0
  1
1524
  7
ARIAL
 72
     1
 11
691.5504095187653
 21
5370.819179017895
 31
0.0
100
AcDbText
 73
     2
  0
TEXT
  5
9595
330
2
100
AcDbEntity
  8
0
100
AcDbText
 10
680.8402968144119
 20
5355.819179017895
 30
0.0
 40
6.0
  1
54 3/4"
  7
ARIAL
 72
     1
 11
693.9801331036342
 21
5358.819179017895
 31
0.0
100
AcDbText
 73
     2
  0
TEXT
  5
9596
330
2
100
AcDbEntity
  8
0
100
AcDbText
 10
673.8839702281787
 20
5391.819179017895
 30
0.0
 40
6.0
  1
4'-11 1/2"
  7
ARIAL
 72
     1
 11
691.5504095187653
 21
5394.819179017895
 31
0.0
100
AcDbText
 73
     2
  0
LINE
  5
9597
330
2
100
AcDbEntity
  8
0
100
AcDbLine
 10
83.17475951956294
 20
5043.997885709598
 30
0.0
 11
83.17475951956294
 21
4831.497885709599
 31
0.0
  0
LINE
  5
9598
330
2
100
AcDbEntity
  8
0
100
AcDbLine
 10
59.17475951956294
 20
5067.997885709598
 30
0.0
 11
59.17475951956294
 21
4831.497885709599
 31
0.0
  0
LINE
  5
9599
330
2
100
AcDbEntity
  8
0
100
AcDbLine
 10
47.17475951956294
 20
5079.997885709598
 30
0.0
 11
47.17475951956294
 21
4831.497885709599
 31
0.0
  0
LINE
  5
959A
330
2
100
AcDbEntity
  8
0
100
AcDbLine
 10
35.17475951956294
 20
5091.997885709598
 30
0.0
 11
35.17475951956294
 21
4831.497885709599
 31
0.0
  0
LINE
  5
959B
330
2
100
AcDbEntity
  8
0
100
AcDbLine
 10
71.17475951956294
 20
5055.997885709598
 30
0.0
 11
71.17475951956294
 21
4831.497885709599
 31
0.0
  0
TEXT
  5
959C
330
2
100
AcDbEntity
  8
0
100
AcDbText
 10
80.17475951956385
 20
4930.324791915361
 30
0.0
 40
6.0
  1
18 3/4"
 50
90.0
  7
ARIAL
 72
     1
 11
77.17475951956385
 21
4943.464628204583
 31
0.0
100
AcDbText
 73
     2
  0
TEXT
  5
959D
330
2
100
AcDbEntity
  8
0
100
AcDbText
 10
56.17475951956294
 20
4935.119471315088
 30
0.0
 40
6.0
  1
2'-0"
 50
90.0
  7
ARIAL
 72
     1
 11
53.17475951956294
 21
4943.464628204583
 31
0.0
100
AcDbText
 73
     2
  0
TEXT
  5
959E
330
2
100
AcDbEntity
  8
0
100
AcDbText
 10
44.17475951956294
 20
4925.798188913996
 30
0.0
 40
6.0
  1
1'-11 1/2"
 50
90.0
  7
ARIAL
 72
     1
 11
41.17475951956294
 21
4943.464628204583
 31
0.0
100
AcDbText
 73
     2
  0
TEXT
  5
959F
330
2
100
AcDbEntity
  8
0
100
AcDbText
 10
80.17475951956385
 20
4837.677331938135
 30
0.0
 40
6.0
  1
30 3/4"
 50
90.0
  7
ARIAL
 72
     1
 11
77.17475951956385
 21
4850.817168227357
 31
0.0
100
AcDbText
 73
     2
  0
TEXT
  5
95A0
330
2
100
AcDbEntity
  8
0
100
AcDbText
 10
56.17475951956294
 20
4842.472011337862
 30
0.0
 40
6.0
  1
3'-0"
 50
90.0
  7
ARIAL
 72
     1
 11
53.17475951956294
 21
4850.817168227357
 31
0.0
100
AcDbText
 73
     2
  0
TEXT
  5
95A1
330
2
100
AcDbEntity
  8
0
100
AcDbText
 10
68.17475951956294
 20
4843.033183523643
 30
0.0
 40
6.0
  1
914
 50
90.0
  7
ARIAL
 72
     1
 11
65.17475951956294
 21
4850.025680113002
 31
0.0
100
AcDbText
 73
     2
  0
TEXT
  5
95A2
330
2
100
AcDbEntity
  8
0
100
AcDbText
 10
44.17475951956294
 20
4833.15072893677
 30
0.0
 40
6.0
  1
2'-11 1/2"
 50
90.0
  7
ARIAL
 72
     1
 11
41.17475951956294
 21
4850.817168227357
 31
0.0
100
AcDbText
 73
     2
  0
TEXT
  5
95A3
330
2
100
AcDbEntity
  8
0
100
AcDbText
 10
44.17475951956294
 20
4884.48392080761
 30
0.0
 40
6.0
  1
2'-5 1/2"
 50
90.0
  7
ARIAL
 72
     1
 11
41.17475951956294
 21
4899.819527901744
 31
0.0
100
AcDbText
 73
     2
  0
TEXT
  5
95A4
330
2
100
AcDbEntity
  8
0
100
AcDbText
 10
56.17475951956294
 20
4891.474371012248
 30
0.0
 40
6.0
  1
2'-6"
 50
90.0
  7
ARIAL
 72
     1
 11
53.17475951956294
 21
4899.819527901744
 31
0.0
100
AcDbText
 73
     2
  0
TEXT
  5
95A5
330
2
100
AcDbEntity
  8
0
100
AcDbText
 10
80.17475951956385
 20
4886.679691612521
 30
0.0
 40
6.0
  1
24 3/4"
 50
90.0
  7
ARIAL
 72
     1
 11
77.17475951956385
 21
4899.819527901744
 31
0.0
100
AcDbText
 73
     2
  0
TEXT
  5
95A6
330
2
100
AcDbEntity
  8
0
100
AcDbText
 10
68.17475951956294
 20
4892.827031312385
 30
0.0
 40
6.0
  1
762
 50
90.0
  7
ARIAL
 72
     1
 11
65.17475951956294
 21
4899.819527901744
 31
0.0
100
AcDbText
 73
     2
  0
TEXT
  5
95A7
330
2
100
AcDbEntity
  8
0
100
AcDbText
 10
68.17475951956294
 20
4936.472131615224
 30
0.0
 40
6.0
  1
610
 50
90.0
  7
ARIAL
 72
     1
 11
65.17475951956294
 21
4943.464628204583
 31
0.0
100
AcDbText
 73
     2
  0
TEXT
  5
95A8
330
2
100
AcDbEntity
  8
0
100
AcDbText
 10
80.17475951956385
 20
5006.962436865168
 30
0.0
 40
6.0
  1
12 3/4"
 50
90.0
  7
ARIAL
 72
     1
 11
77.17475951956385
 21
5020.102273154391
 31
0.0
100
AcDbText
 73
     2
  0
TEXT
  5
95A9
330
2
100
AcDbEntity
  8
0
100
AcDbText
 10
56.17475951956294
 20
5011.757116264896
 30
0.0
 40
6.0
  1
1'-6"
 50
90.0
  7
ARIAL
 72
     1
 11
53.17475951956294
 21
5020.102273154391
 31
0.0
100
AcDbText
 73
     2
  0
TEXT
  5
95AA
330
2
100
AcDbEntity
  8
0
100
AcDbText
 10
44.17475951956294
 20
5004.766666060257
 30
0.0
 40
6.0
  1
1'-5 1/2"
 50
90.0
  7
ARIAL
 72
     1
 11
41.17475951956294
 21
5020.102273154391
 31
0.0
100
AcDbText
 73
     2
  0
TEXT
  5
95AB
330
2
100
AcDbEntity
  8
0
100
AcDbText
 10
68.17475951956294
 20
5013.109776565032
 30
0.0
 40
6.0
  1
457
 50
90.0
  7
ARIAL
 72
     1
 11
65.17475951956294
 21
5020.102273154391
 31
0.0
100
AcDbText
 73
     2
  0
TEXT
  5
95AC
330
2
100
AcDbEntity
  8
0
100
AcDbText
 10
80.17475951956385
 20
4970.260815275226
 30
0.0
 40
6.0
  1
14 3/4"
 50
90.0
  7
ARIAL
 72
     1
 11
77.17475951956385
 21
4983.400651564449
 31
0.0
100
AcDbText
 73
     2
  0
TEXT
  5
95AD
330
2
100
AcDbEntity
  8
0
100
AcDbText
 10
56.17475951956294
 20
4975.055494674953
 30
0.0
 40
6.0
  1
1'-8"
 50
90.0
  7
ARIAL
 72
     1
 11
53.17475951956294
 21
4983.400651564449
 31
0.0
100
AcDbText
 73
     2
  0
TEXT
  5
95AE
330
2
100
AcDbEntity
  8
0
100
AcDbText
 10
44.17475951956294
 20
4968.065044470315
 30
0.0
 40
6.0
  1
1'-7 1/2"
 50
90.0
  7
ARIAL
 72
     1
 11
41.17475951956294
 21
4983.400651564449
 31
0.0
100
AcDbText
 73
     2
  0
TEXT
  5
95AF
330
2
100
AcDbEntity
  8
0
100
AcDbText
 10
68.17475951956294
 20
4976.40815497509
 30
0.0
 40
6.0
  1
508
 50
90.0
  7
ARIAL
 72
     1
 11
65.17475951956294
 21
4983.400651564449
 31
0.0
100
AcDbText
 73
     2
  0
VIEWPORT
  5
1C56
102
{ACAD_XDICTIONARY
360
1C57
102
}
330
16
100
AcDbEntity
 67
     1
  8
0
100
AcDbViewport
 10
4.132133385213329
 20
5.372062590506949
 30
0.0
 40
27.21515426453168
 41
10.43791221401528
 68
     1
 69
     1
1001
ACAD
1000
MVIEW
1002
{
1070
    16
1010
0.0
1020
0.0
1030
0.0
1010
0.0
1020
0.0
1030
1.0
1040
0.0
1040
10.43791221401528
1040
4.132133385213329
1040
5.372062590506949
1040
50.0
1040
0.0
1040
0.0
1070
     0
1070
  2000
1070
     0
1070
     1
1070
     0
1070
     0
1070
     0
1070
     0
1040
0.0
1040
0.0
1040
0.0
1040
0.5
1040
0.5
1040
0.5
1040
0.5
1070
     0
1002
{
1002
}
1002
}
  0
VIEWPORT
  5
1C62
102
{ACAD_XDICTIONARY
360
1C63
102
}
330
16
100
AcDbEntity
 67
     1
  8
0
100
AcDbViewport
 10
4.132118376326085
 20
5.372192702885667
 30
0.0
 40
7.934029685367958
 41
10.35294117480941
 68
     2
 69
     2
1001
ACAD
1000
MVIEW
1002
{
1070
    16
1010
94.84804972245233
1020
18.17676013218968
1030
0.0
1010
0.0
1020
0.0
1030
10.36550459200838
1040
0.0
1040
1070.0
1040
315.1519502775478
1040
4946.82323986781
1040
50.0
1040
0.0
1040
0.0
1070
     0
1070
  2000
1070
     0
1070
     1
1070
     0
1070
     0
1070
     0
1070
     0
1040
0.0
1040
0.0
1040
0.0
1040
1.0
1040
1.0
1040
0.0
1040
0.0
1070
     0
1002
{
1002
}
1002
}
  0
ENDSEC
  0
SECTION
  2
OBJECTS
  0
DICTIONARY
  5
B
330
0
100
AcDbDictionary
  3
ACAD_CIP_PREVIOUS_PRODUCT_INFO
350
1C4C
  3
ACAD_COLOR
350
3B
  3
ACAD_DETAILVIEWSTYLE
350
1C46
  3
ACAD_GROUP
350
36
  3
ACAD_LAYOUT
350
13
  3
ACAD_MATERIAL
350
D
  3
ACAD_MLEADERSTYLE
350
3E
  3
ACAD_MLINESTYLE
350
37
  3
ACAD_PLOTSETTINGS
350
38
  3
ACAD_SCALELIST
350
3C
  3
ACAD_SECTIONVIEWSTYLE
350
1C44
  3
ACAD_VISUALSTYLE
350
2E
  3
ACDB_RECOMPOSE_DATA
350
963F
  3
ACDBHEADERROUNDTRIPXREC
350
9603
  3
ACDBVARIABLEDICTIONARY
350
1C22
  3
DWGPROPS
350
9629
  0
DICTIONARY
  5
30
330
2B
100
AcDbDictionary
280
     1
  3
ACAD_XREC_ROUNDTRIP
360
9639
  0
DICTIONARY
  5
1E
330
1D
100
AcDbDictionary
280
     1
  3
ACAD_LAYERFILTERS
360
1F
  3
ACAD_LAYERSTATES
360
21
  0
DICTIONARY
  5
7
330
6
100
AcDbDictionary
280
     1
  3
ADSK_XREC_LAYER_RECONCILED
360
8
  0
DICTIONARY
  5
3
330
2
100
AcDbDictionary
280
     1
  3
ACAD_SORTENTS
360
1C0F
  0
DICTIONARY
  5
962A
330
8C71
100
AcDbDictionary
280
     1
  3
ACAD_MTEXT_2008_RT
360
962B
  3
ACAD_MTEXT_RT
360
962C
  0
DICTIONARY
  5
962D
330
8C73
100
AcDbDictionary
280
     1
  3
ACAD_MTEXT_2008_RT
360
962E
  3
ACAD_MTEXT_RT
360
962F
  0
DICTIONARY
  5
9630
330
8C77
100
AcDbDictionary
280
     1
  3
ACAD_MTEXT_2008_RT
360
9631
  3
ACAD_MTEXT_RT
360
9632
  0
DICTIONARY
  5
9633
330
8C79
100
AcDbDictionary
280
     1
  3
ACAD_MTEXT_2008_RT
360
9634
  3
ACAD_MTEXT_RT
360
9635
  0
DICTIONARY
  5
9636
330
8C7B
100
AcDbDictionary
280
     1
  3
ACAD_MTEXT_2008_RT
360
9637
  3
ACAD_MTEXT_RT
360
9638
  0
DICTIONARY
  5
1C57
330
1C56
100
AcDbDictionary
280
     1
  3
ASDK_XREC_ANNOTATION_SCALE_INFO
360
1C58
  0
DICTIONARY
  5
1C63
330
1C62
100
AcDbDictionary
280
     1
  3
ASDK_XREC_ANNOTATION_SCALE_INFO
360
1C64
  0
XRECORD
  5
1C4C
102
{ACAD_REACTORS
330
B
102
}
330
B
100
AcDbXrecord
300
ACD
300
2016
300
BDSPRM_F_S
  0
DICTIONARY
  5
3B
102
{ACAD_REACTORS
330
B
102
}
330
B
100
AcDbDictionary
  0
DICTIONARY
  5
1C46
102
{ACAD_REACTORS
330
B
102
}
330
B
100
AcDbDictionary
  3
IMPERIAL24
350
1C47
  0
DICTIONARY
  5
36
102
{ACAD_REACTORS
330
B
102
}
330
B
100
AcDbDictionary
  0
DICTIONARY
  5
13
102
{ACAD_REACTORS
330
B
102
}
330
B
100
AcDbDictionary
  0
DICTIONARY
  5
D
102
{ACAD_REACTORS
330
B
102
}
330
B
100
AcDbDictionary
  3
BYBLOCK
350
3A
  3
BYLAYER
350
39
  3
GLOBAL
350
C
  0
DICTIONARY
  5
3E
102
{ACAD_REACTORS
330
B
102
}
330
B
100
AcDbDictionary
  3
STANDARD
350
1C43
  0
DICTIONARY
  5
37
102
{ACAD_REACTORS
330
B
102
}
330
B
100
AcDbDictionary
  3
STANDARD
350
3F
  0
DICTIONARY
  5
38
102
{ACAD_REACTORS
330
B
102
}
330
B
100
AcDbDictionary
  0
DICTIONARY
  5
3C
102
{ACAD_REACTORS
330
B
102
}
330
B
100
AcDbDictionary
  3
A0
350
44
  3
A1
350
45
  3
A2
350
46
  3
A3
350
47
  3
A4
350
48
  3
A5
350
49
  3
A6
350
4A
  3
A7
350
4B
  3
A8
350
4C
  3
A9
350
4D
  3
B0
350
4E
  3
B1
350
4F
  3
B2
350
50
  3
B3
350
51
  3
B4
350
52
  3
B5
350
53
  3
B6
350
54
  0
DICTIONARY
  5
1C44
102
{ACAD_REACTORS
330
B
102
}
330
B
100
AcDbDictionary
  3
IMPERIAL24
350
1C45
  0
DICTIONARY
  5
2E
102
{ACAD_REACTORS
330
B
102
}
330
B
100
AcDbDictionary
  3
2DWIREFRAME
350
2D
  3
3DWIREFRAME
350
43
  3
BASIC
350
1C31
  3
BRIGHTEN
350
1C36
  3
COLORCHANGE
350
1C3A
  3
CONCEPTUAL
350
1C34
  3
DIM
350
1C35
  3
EDGECOLOROFF
350
1C42
  3
FACEPATTERN
350
1C39
  3
FLAT
350
1C2D
  3
FLATWITHEDGES
350
1C2E
  3
GOURAUD
350
1C2F
  3
GOURAUDWITHEDGES
350
1C30
  3
HIDDEN
350
1C33
  3
JITTEROFF
350
1C40
  3
LINEPATTERN
350
1C38
  3
OVERHANGOFF
350
1C41
  3
REALISTIC
350
42
  3
SHADED
350
1C3F
  3
SHADED_WITH_EDGES
350
1C3E
  3
SHADES_OF_GRAY
350
1C3B
  3
SKETCHY
350
1C3C
  3
THICKEN
350
1C37
  3
WIREFRAME
350
1C32
  3
X-RAY
350
1C3D
  0
XRECORD
  5
963F
102
{ACAD_REACTORS
330
B
102
}
330
B
100
AcDbXrecord
 90
        1
330
8C73
330
8C7B
330
8C77
330
8C71
330
8C79
  0
DICTIONARY
  5
9603
102
{ACAD_REACTORS
330
B
102
}
330
B
100
AcDbDictionary
  3
CEPSNID
350
960D
  3
CEPSNTYPE
350
960C
  3
COLORDICT
350
9627
  3
DIMSTYLEDATA
350
9623
  3
FINGERPRINTGUID
350
960E
  3
HYPERLINKBASE
350
9606
  3
INSUNITS
350
960B
  3
LAYOUTDICT
350
9608
  3
LWETCUNION
350
960A
  3
MATERIALDICT
350
9628
  3
PLOTSETDICT
350
9609
  3
PSVPSCALE
350
9610
  3
PUCSBASE
350
9613
  3
PUCSORGBACK
350
9619
  3
PUCSORGBOTTOM
350
9615
  3
PUCSORGFRONT
350
9618
  3
PUCSORGLEFT
350
9616
  3
PUCSORGRIGHT
350
9617
  3
PUCSORGTOP
350
9614
  3
PUCSORTHOREF
350
9611
  3
PUCSORTHOVIEW
350
9612
  3
STYLESHEET
350
9607
  3
TSTACKALIGN
350
9604
  3
TSTACKSIZE
350
9605
  3
UCSBASE
350
961C
  3
UCSORGBACK
350
9622
  3
UCSORGBOTTOM
350
961E
  3
UCSORGFRONT
350
9621
  3
UCSORGLEFT
350
961F
  3
UCSORGRIGHT
350
9620
  3
UCSORGTOP
350
961D
  3
UCSORTHOREF
350
961A
  3
UCSORTHOVIEW
350
961B
  3
VERSIONGUID
350
960F
  0
DICTIONARY
  5
1C22
102
{ACAD_REACTORS
330
B
102
}
330
B
100
AcDbDictionary
  3
CANNOSCALE
350
1C28
  3
CMLEADERSTYLE
350
1C24
  3
CTABLESTYLE
350
1C23
  3
CVIEWDETAILSTYLE
350
1C25
  3
CVIEWSECTIONSTYLE
350
1C26
  3
DIMASSOC
350
9624
  3
HIDETEXT
350
9626
  3
LAYEREVAL
350
1C2A
  3
LAYERNOTIFY
350
1C2B
  3
LIGHTINGUNITS
350
1C29
  3
MSLTSCALE
350
1C27
  3
XCLIPFRAME
350
9625
  0
XRECORD
  5
9629
102
{ACAD_REACTORS
330
B
102
}
330
B
100
AcDbXrecord
  1
DWGPROPS COOKIE
  2

  3

  4

  6

  7

  8
25061
  9

300
=
301
=
302
=
303
=
304
=
305
=
306
=
307
=
308
=
309
=
 40
0.0
 41
2452346.881391203
 42
2458067.958446331
  1

 90
        0
  0
XRECORD
  5
9639
102
{ACAD_REACTORS
330
30
102
}
330
30
100
AcDbXrecord
102
VTR_0.000_0.000_1.000_1.000_VISUALSTYLE
340
2D
102
VTR_0.000_0.000_1.000_1.000_GRIDDISPLAY
 70
     3
102
VTR_0.000_0.000_1.000_1.000_GRIDMAJOR
 70
     5
102
VTR_0.000_0.000_1.000_1.000_DEFAULTLIGHTING
280
     1
102
VTR_0.000_0.000_1.000_1.000_DEFAULTLIGHTINGTYPE
 70
     1
102
VTR_0.000_0.000_1.000_1.000_BRIGHTNESS
141
0.0
102
VTR_0.000_0.000_1.000_1.000_CONTRAST
142
0.0
  0
DICTIONARY
  5
1F
102
{ACAD_REACTORS
330
1E
102
}
330
1E
100
AcDbDictionary
280
     1
  3
DIM
360
20
  0
DICTIONARY
  5
21
102
{ACAD_REACTORS
330
1E
102
}
330
1E
100
AcDbDictionary
  0
ACAD_PROXY_OBJECT
  5
8
102
{ACAD_REACTORS
330
7
102
}
330
7
100
AcDbProxyObject
 90
      499
 91
      517
 93
       34
310
40C8804040
  0
SORTENTSTABLE
  5
1C0F
102
{ACAD_REACTORS
330
3
102
}
330
3
100
AcDbSortentsTable
330
2
  0
XRECORD
  5
962B
102
{ACAD_REACTORS
330
962A
102
}
330
962A
100
AcDbXrecord
 40
30198.0
  1
\pxqr;Casement Transom Windows
  0
XRECORD
  5
962C
102
{ACAD_REACTORS
330
962A
102
}
330
962A
100
AcDbXrecord
 40
30198.0
  1
Casement Transom Windows
  0
XRECORD
  5
962E
102
{ACAD_REACTORS
330
962D
102
}
330
962D
100
AcDbXrecord
 40
15258.0
  1
\pxqr;Elevation Details
  0
XRECORD
  5
962F
102
{ACAD_REACTORS
330
962D
102
}
330
962D
100
AcDbXrecord
 40
15258.0
  1
Elevation Details
  0
XRECORD
  5
9631
102
{ACAD_REACTORS
330
9630
102
}
330
9630
100
AcDbXrecord
 40
23269.0
  1
\pxql;www.weathershield.com
  0
XRECORD
  5
9632
102
{ACAD_REACTORS
330
9630
102
}
330
9630
100
AcDbXrecord
 40
23269.0
  1
www.weathershield.com
  0
XRECORD
  5
9634
102
{ACAD_REACTORS
330
9633
102
}
330
9633
100
AcDbXrecord
 40
42045.0
  1
\pxqc;Weather Shield Windows & Doors
  0
XRECORD
  5
9635
102
{ACAD_REACTORS
330
9633
102
}
330
9633
100
AcDbXrecord
 40
42045.0
  1
Weather Shield Windows & Doors
  0
XRECORD
  5
9637
102
{ACAD_REACTORS
330
9636
102
}
330
9636
100
AcDbXrecord
 40
1946.0
  1
\pxqr;REV 7/17
  0
XRECORD
  5
9638
102
{ACAD_REACTORS
330
9636
102
}
330
9636
100
AcDbXrecord
 40
1946.0
  1
REV 7/17
  0
XRECORD
  5
1C58
102
{ACAD_REACTORS
330
1C57
102
}
330
1C57
100
AcDbXrecord
 90
        1
340
44
  0
XRECORD
  5
1C64
102
{ACAD_REACTORS
330
1C63
102
}
330
1C63
100
AcDbXrecord
 90
        1
340
44
  0
ACAD_PROXY_OBJECT
  5
1C47
102
{ACAD_REACTORS
330
1C46
102
}
102
{ACAD_XDICTIONARY
360
8CDE
102
}
330
1C46
100
AcDbProxyObject
 90
      499
 91
      514
 93
     1245
310
90A496D70657269616C3234481E5C0F42F5A8DC671FC056BD1B81E856B9F81E5C0F42F5A8DC671FA33E5C0F42F5A8DC671FA02000000000000741FA02AD129E2E20B1AB30B9102B34B2BBAA3CB832902E33101112BA3198911F1290129E2E20B1AB30B9102B34B2BBA232BA30B4B624B21F12AE2829A1A0A62290129E2E20B
310
1AB30B9102B34B2BBA9B1B0B632902E33101112B9B7111F12A33A33800
340
23
340
0
340
10
340
23
340
10
340
10
 94
        0
  0
MATERIAL
  5
3A
102
{ACAD_REACTORS
330
D
102
}
102
{ACAD_XDICTIONARY
360
963A
102
}
330
D
100
AcDbMaterial
  1
BYBLOCK
  0
MATERIAL
  5
39
102
{ACAD_REACTORS
330
D
102
}
102
{ACAD_XDICTIONARY
360
963C
102
}
330
D
100
AcDbMaterial
  1
BYLAYER
  0
MATERIAL
  5
C
102
{ACAD_REACTORS
330
D
102
}
102
{ACAD_XDICTIONARY
360
E
102
}
330
D
100
AcDbMaterial
  1
GLOBAL
  0
ACAD_PROXY_OBJECT
  5
1C43
102
{ACAD_REACTORS
330
3E
102
}
330
3E
100
AcDbProxyObject
 90
      499
 91
      509
 93
      610
310
40901902A4063FBFFFFFE056BD1B81E855B9FC0AD7A3703D0AD73F4214DD185B99185C9900AD7A3703D0AC73F90141901A02B5E8DC0F42B1CFC02B5E8DC0F42B1CFE5764000000000000300FC0
340
27
340
0
340
23
340
0
 94
        0
1001
ACAD_MLEADERVER
1070
     2
  0
MLINESTYLE
  5
3F
102
{ACAD_REACTORS
330
37
102
}
330
37
100
AcDbMlineStyle
  2
STANDARD
 70
     0
  3

 62
   256
 51
90.0
 52
90.0
 71
     2
 49
0.5
 62
   256
  6
BYLAYER
 49
-0.5
 62
   256
  6
BYLAYER
  0
ACAD_PROXY_OBJECT
  5
44
102
{ACAD_REACTORS
330
3C
102
}
330
3C
100
AcDbProxyObject
 90
      499
 91
      508
 93
       41
310
903313A31580
  0
ACAD_PROXY_OBJECT
  5
45
102
{ACAD_REACTORS
330
3C
102
}
330
3C
100
AcDbProxyObject
 90
      499
 91
      508
 93
      257
310
90E312F31323822203D2031272D3022000000000000200FC000000000000284000
  0
ACAD_PROXY_OBJECT
  5
46
102
{ACAD_REACTORS
330
3C
102
}
330
3C
100
AcDbProxyObject
 90
      499
 91
      508
 93
      249
310
90D312F363422203D2031272D3022000000000000240FC000000000000284000
  0
ACAD_PROXY_OBJECT
  5
47
102
{ACAD_REACTORS
330
3C
102
}
330
3C
100
AcDbProxyObject
 90
      499
 91
      508
 93
      249
310
90D312F333222203D2031272D3022000000000000280FC000000000000284000
  0
ACAD_PROXY_OBJECT
  5
48
102
{ACAD_REACTORS
330
3C
102
}
330
3C
100
AcDbProxyObject
 90
      499
 91
      508
 93
      249
310
90D312F313622203D2031272D30220000000000002C0FC000000000000284000
  0
ACAD_PROXY_OBJECT
  5
49
102
{ACAD_REACTORS
330
3C
102
}
330
3C
100
AcDbProxyObject
 90
      499
 91
      508
 93
      249
310
90D332F333222203D2031272D30220000000000002E0FC000000000000284000
  0
ACAD_PROXY_OBJECT
  5
4A
102
{ACAD_REACTORS
330
3C
102
}
330
3C
100
AcDbProxyObject
 90
      499
 91
      508
 93
      241
310
90C312F3822203D2031272D3022000000000000300FC000000000000284000
  0
ACAD_PROXY_OBJECT
  5
4B
102
{ACAD_REACTORS
330
3C
102
}
330
3C
100
AcDbProxyObject
 90
      499
 91
      508
 93
      249
310
90D332F313622203D2031272D3022000000000000320FC000000000000284000
  0
ACAD_PROXY_OBJECT
  5
4C
102
{ACAD_REACTORS
330
3C
102
}
330
3C
100
AcDbProxyObject
 90
      499
 91
      508
 93
      241
310
90C312F3422203D2031272D3022000000000000340FC000000000000284000
  0
ACAD_PROXY_OBJECT
  5
4D
102
{ACAD_REACTORS
330
3C
102
}
330
3C
100
AcDbProxyObject
 90
      499
 91
      508
 93
      241
310
90C332F3822203D2031272D3022000000000000360FC000000000000284000
  0
ACAD_PROXY_OBJECT
  5
4E
102
{ACAD_REACTORS
330
3C
102
}
330
3C
100
AcDbProxyObject
 90
      499
 91
      508
 93
      241
310
90C312F3222203D2031272D3022000000000000380FC000000000000284000
  0
ACAD_PROXY_OBJECT
  5
4F
102
{ACAD_REACTORS
330
3C
102
}
330
3C
100
AcDbProxyObject
 90
      499
 91
      508
 93
      241
310
90C332F3422203D2031272D30220000000000003A0FC000000000000284000
  0
ACAD_PROXY_OBJECT
  5
50
102
{ACAD_REACTORS
330
3C
102
}
330
3C
100
AcDbProxyObject
 90
      499
 91
      508
 93
      161
310
90A3122203D2031272D30224000000000000284000
  0
ACAD_PROXY_OBJECT
  5
51
102
{ACAD_REACTORS
330
3C
102
}
330
3C
100
AcDbProxyObject
 90
      499
 91
      508
 93
      257
310
90E312D312F3222203D2031272D30220000000000003E0FC000000000000284000
  0
ACAD_PROXY_OBJECT
  5
52
102
{ACAD_REACTORS
330
3C
102
}
330
3C
100
AcDbProxyObject
 90
      499
 91
      508
 93
      225
310
90A3322203D2031272D302200000000000002100000000000000284000
  0
ACAD_PROXY_OBJECT
  5
53
102
{ACAD_REACTORS
330
3C
102
}
330
3C
100
AcDbProxyObject
 90
      499
 91
      508
 93
      225
310
90A3622203D2031272D302200000000000006100000000000000284000
  0
ACAD_PROXY_OBJECT
  5
54
102
{ACAD_REACTORS
330
3C
102
}
330
3C
100
AcDbProxyObject
 90
      499
 91
      508
 93
      249
310
90D31272D3022203D2031272D30220000000000000A100000000000000284000
  0
ACAD_PROXY_OBJECT
  5
1C45
102
{ACAD_REACTORS
330
1C44
102
}
102
{ACAD_XDICTIONARY
360
8CDC
102
}
330
1C44
100
AcDbProxyObject
 90
      499
 91
      513
 93
     2271
310
90A496D70657269616C32344A765C0F42F5A8DC671FE5C0F42F5A8DC671FA209258409E5840A25840A65840B05840B45C0F42F5A8DC6F1FA33A659703D0BD6A3719C7E5C0F42F5A8DC671FE5C0F42F5A8DC671FA02000000000000741FA02BE129E2E20B1AB30B9102B34B2BBAA3CB832902E33101112BA3198911F1290129
310
E2E20B1AB30B9102B34B2BBA9B2B1BA34B7B729BA30B93A24B21F1296929E2E20B1AB30B9102B34B2BBA9B2B1BA34B7B722B73224B21F12AE2829A1A0A62290129E2E20B1AB30B9102B34B2BBA9B1B0B632902E33101112B9B7111F12E0080A0C829CA6926662C206056BD1B81E85639FA0320D0305A88A9F643F27E32B996
310
9C2960E81F87FA0718D4DE3E87E32B9969C2960E85F9E5129FC49EA5FA7E
340
23
340
0
340
0
340
10
340
10
340
23
 94
        0
  0
ACAD_PROXY_OBJECT
  5
2D
102
{ACAD_REACTORS
330
2E
102
}
330
2E
100
AcDbProxyObject
 90
      499
 91
      505
 93
      436
310
42CC9915DA5C99599C985B595049028333333333333E3BF0000000000000FB0107901411070040501600405405064090741402480A0340
1001
ACAD
1000
AcDbSavedByObjectVersion
1070
     0
  0
ACAD_PROXY_OBJECT
  5
43
102
{ACAD_REACTORS
330
2E
102
}
330
2E
100
AcDbProxyObject
 90
      499
 91
      505
 93
      436
310
42CCD915DA5C99599C985B595059028333333333333E3BF0000000000000FB0107901411070040501600405405064090741402480A0340
1001
ACAD
1000
AcDbSavedByObjectVersion
1070
     0
  0
ACAD_PROXY_OBJECT
  5
1C31
102
{ACAD_REACTORS
330
2E
102
}
330
2E
100
AcDbProxyObject
 90
      499
 91
      505
 93
      388
310
4150985CDA58D07406404333333333333E3BF0000000000000FB0107A41107004050150841D405064090741402480A0350
1001
ACAD
1000
AcDbSavedByObjectVersion
1070
     0
  0
ACAD_PROXY_OBJECT
  5
1C36
102
{ACAD_REACTORS
330
2E
102
}
330
2E
100
AcDbProxyObject
 90
      499
 91
      505
 93
      428
310
42109C9A59DA1D195B90C409028333333333333E3BF0000000000000FB010790141107004050150841D405064090741402480A029950
1001
ACAD
1000
AcDbSavedByObjectVersion
1070
     0
  0
ACAD_PROXY_OBJECT
  5
1C3A
102
{ACAD_REACTORS
330
2E
102
}
330
2E
100
AcDbProxyObject
 90
      499
 91
      505
 93
      452
310
42D0DBDB1BDC90DA185B99D95104090240C333333333333E3BF0000000000000FB0108901411070040501508421405064090741402480A0350
1001
ACAD
1000
AcDbSavedByObjectVersion
1070
     0
  0
ACAD_PROXY_OBJECT
  5
1C34
102
{ACAD_REACTORS
330
2E
102
}
330
2E
100
AcDbProxyObject
 90
      499
 91
      505
 93
      500
310
4290DBDB98D95C1D1D585B10940D028333333333333E3BF0000000000000FB0107902409070040501000000000018199010841D405064090740C02480A0340
1001
ACAD
1000
AcDbSavedByObjectVersion
1070
     0
  0
ACAD_PROXY_OBJECT
  5
1C35
102
{ACAD_REACTORS
330
2E
102
}
330
2E
100
AcDbProxyObject
 90
      499
 91
      505
 93
      412
310
40D11A5B50B409028333333333333E3BF0000000000000FB010790141107004050150841D405064090741402480A02677FFFFFD0
1001
ACAD
1000
AcDbSavedByObjectVersion
1070
     0
  0
ACAD_PROXY_OBJECT
  5
1C42
102
{ACAD_REACTORS
330
2E
102
}
330
2E
100
AcDbProxyObject
 90
      499
 91
      505
 93
      452
310
43115919D950DBDB1BDC93D999916409028333333333333E3BF0000000000000FB010790141107004050150841D405064090741402480A0350
1001
ACAD
1000
AcDbSavedByObjectVersion
1070
     0
  0
ACAD_PROXY_OBJECT
  5
1C39
102
{ACAD_REACTORS
330
2E
102
}
330
2E
100
AcDbProxyObject
 90
      499
 91
      505
 93
      444
310
42D19858D95C185D1D195C9B90F409028333333333333E3BF0000000000000FB010790141107004050150841D405064090741402480A0350
1001
ACAD
1000
AcDbSavedByObjectVersion
1070
     0
  0
ACAD_PROXY_OBJECT
  5
1C2D
102
{ACAD_REACTORS
330
2E
102
}
330
2E
100
AcDbProxyObject
 90
      499
 91
      505
 93
      380
310
41119B185D240901404333333333333E3BF0000000000000F9010740A907004050150841D405064090741402480A1B50
1001
ACAD
1000
AcDbSavedByObjectVersion
1070
     0
  0
ACAD_PROXY_OBJECT
  5
1C2E
102
{ACAD_REACTORS
330
2E
102
}
330
2E
100
AcDbProxyObject
 90
      499
 91
      505
 93
      468
310
43519B185D15DA5D1A115919D95CD0140901404333333333333E3BF0000000000000F90107409019070040501600405405064090741402480A1B50
1001
ACAD
1000
AcDbSavedByObjectVersion
1070
     0
  0
ACAD_PROXY_OBJECT
  5
1C2F
102
{ACAD_REACTORS
330
2E
102
}
330
2E
100
AcDbProxyObject
 90
      499
 91
      505
 93
      404
310
41D1DBDD5C985D5910240902404333333333333E3BF0000000000000F9010740A9070040501641D405064090741402480A1B50
1001
ACAD
1000
AcDbSavedByObjectVersion
1070
     0
  0
ACAD_PROXY_OBJECT
  5
1C30
102
{ACAD_REACTORS
330
2E
102
}
330
2E
100
AcDbProxyObject
 90
      499
 91
      505
 93
      492
310
4411DBDD5C985D5915DA5D1A115919D95CD0340902404333333333333E3BF0000000000000F90107409019070040501600405405064090741402480A1B50
1001
ACAD
1000
AcDbSavedByObjectVersion
1070
     0
  0
ACAD_PROXY_OBJECT
  5
1C33
102
{ACAD_REACTORS
330
2E
102
}
330
2E
100
AcDbProxyObject
 90
      499
 91
      505
 93
      476
310
41921A5919195B90640502408333333333333E3BF0000000000000FB01079024090700405020000000000001110200405405064090740C02480A0340
1001
ACAD
1000
AcDbSavedByObjectVersion
1070
     0
  0
ACAD_PROXY_OBJECT
  5
1C40
102
{ACAD_REACTORS
330
2E
102
}
330
2E
100
AcDbProxyObject
 90
      499
 91
      505
 93
      428
310
42529A5D1D195C93D999914409028333333333333E3BF0000000000000FB010790141107004050150A41D405064090741402480A0350
1001
ACAD
1000
AcDbSavedByObjectVersion
1070
     0
  0
ACAD_PROXY_OBJECT
  5
1C38
102
{ACAD_REACTORS
330
2E
102
}
330
2E
100
AcDbProxyObject
 90
      499
 91
      505
 93
      444
310
42D31A5B995C185D1D195C9B90E409028333333333333E3BF0000000000000FB010790141107004050750841D405064090741402483A0350
1001
ACAD
1000
AcDbSavedByObjectVersion
1070
     0
  0
ACAD_PROXY_OBJECT
  5
1C41
102
{ACAD_REACTORS
330
2E
102
}
330
2E
100
AcDbProxyObject
 90
      499
 91
      505
 93
      444
310
42D3DD995C9A185B99D3D999915409028333333333333E3BF0000000000000FB010790141107004050150941D405064090741402480A0350
1001
ACAD
1000
AcDbSavedByObjectVersion
1070
     0
  0
ACAD_PROXY_OBJECT
  5
42
102
{ACAD_REACTORS
330
2E
102
}
330
2E
100
AcDbProxyObject
 90
      499
 91
      505
 93
      420
310
425499585B1A5CDD1A58D08409028333333333333E3BF0000000000000FB01079019070040501508421405064090741402480A1B40
1001
ACAD
1000
AcDbSavedByObjectVersion
1070
     0
  0
ACAD_PROXY_OBJECT
  5
1C3F
102
{ACAD_REACTORS
330
2E
102
}
330
2E
100
AcDbProxyObject
 90
      499
 91
      505
 93
      420
310
4194DA1859195911B40902404333333333333E3BF0000000000000F9010740A41107004050150800405405064090840C02480A0B40
1001
ACAD
1000
AcDbSavedByObjectVersion
1070
     0
  0
ACAD_PROXY_OBJECT
  5
1C3E
102
{ACAD_REACTORS
330
2E
102
}
330
2E
100
AcDbProxyObject
 90
      499
 91
      505
 93
      516
310
4454DA18591959081DDA5D1A08195919D95CD1A40902404333333333333E3BF0000000000000F901074090140907004050250800405405064090740C02480A0B40
1001
ACAD
1000
AcDbSavedByObjectVersion
1070
     0
  0
ACAD_PROXY_OBJECT
  5
1C3B
102
{ACAD_REACTORS
330
2E
102
}
330
2E
100
AcDbProxyObject
 90
      499
 91
      505
 93
      532
310
4394DA1859195CC81BD98811DC985E5174090240C333333333333E3BF0000000000000FB01079024090741D01000000000000111010841D405064090740C02480A0340
1001
ACAD
1000
AcDbSavedByObjectVersion
1070
     0
  0
ACAD_PROXY_OBJECT
  5
1C3C
102
{ACAD_REACTORS
330
2E
102
}
330
2E
100
AcDbProxyObject
 90
      499
 91
      505
 93
      476
310
41D4DAD95D18DA1E51840502408333333333333E3BF0000000000000FB01079024090741D01000000000000111010B41D405064090741802480A0340
1001
ACAD
1000
AcDbSavedByObjectVersion
1070
     0
  0
ACAD_PROXY_OBJECT
  5
1C37
102
{ACAD_REACTORS
330
2E
102
}
330
2E
100
AcDbProxyObject
 90
      499
 91
      505
 93
      412
310
41D51A1A58DAD95B90D409028333333333333E3BF0000000000000FB010790141107004050150C41D405064090741402480A0350
1001
ACAD
1000
AcDbSavedByObjectVersion
1070
     0
  0
ACAD_PROXY_OBJECT
  5
1C32
102
{ACAD_REACTORS
330
2E
102
}
330
2E
100
AcDbProxyObject
 90
      499
 91
      505
 93
      420
310
4255DA5C99599C985B595059028333333333333E3BF0000000000000FB0107901411070040501600405405064090740C02480A0340
1001
ACAD
1000
AcDbSavedByObjectVersion
1070
     0
  0
ACAD_PROXY_OBJECT
  5
1C3D
102
{ACAD_REACTORS
330
2E
102
}
330
2E
100
AcDbProxyObject
 90
      499
 91
      505
 93
      404
310
41560B54985E51940902404000000000000E03F0000000000000FB010740501907004050150841D405064090740C02480A1B40
1001
ACAD
1000
AcDbSavedByObjectVersion
1070
     0
  0
XRECORD
  5
960D
102
{ACAD_REACTORS
330
9603
102
}
330
9603
100
AcDbXrecord
340
0
  0
XRECORD
  5
960C
102
{ACAD_REACTORS
330
9603
102
}
330
9603
100
AcDbXrecord
 90
        0
  0
XRECORD
  5
9627
102
{ACAD_REACTORS
330
9603
102
}
330
9603
100
AcDbXrecord
340
3B
  0
XRECORD
  5
9623
102
{ACAD_REACTORS
330
9603
102
}
330
9603
100
AcDbXrecord
1000
DSTYLE
1002
{
1070
    41
 40
1.0
1070
   271
 70
     3
1070
    44
 40
1.0
1070
    42
 40
1.0
1070
   147
 40
1.0
1070
   175
 70
     1
1070
    77
 70
     1
1070
   272
 70
     3
1070
    73
 70
     0
1070
    74
 70
     0
1070
   340
340
23
1070
   140
 40
2.0
1002
}
  0
XRECORD
  5
960E
102
{ACAD_REACTORS
330
9603
102
}
330
9603
100
AcDbXrecord
  1
{12E77B32-6AD2-4E0B-8479-D4FEF00DD676}
  0
XRECORD
  5
9606
102
{ACAD_REACTORS
330
9603
102
}
330
9603
100
AcDbXrecord
  1

  0
XRECORD
  5
960B
102
{ACAD_REACTORS
330
9603
102
}
330
9603
100
AcDbXrecord
 90
        0
  0
XRECORD
  5
9608
102
{ACAD_REACTORS
330
9603
102
}
330
9603
100
AcDbXrecord
340
13
  0
XRECORD
  5
960A
102
{ACAD_REACTORS
330
9603
102
}
330
9603
100
AcDbXrecord
 90
    10781
  0
XRECORD
  5
9628
102
{ACAD_REACTORS
330
9603
102
}
330
9603
100
AcDbXrecord
340
D
  0
XRECORD
  5
9609
102
{ACAD_REACTORS
330
9603
102
}
330
9603
100
AcDbXrecord
340
38
  0
XRECORD
  5
9610
102
{ACAD_REACTORS
330
9603
102
}
330
9603
100
AcDbXrecord
 40
0.0
  0
XRECORD
  5
9613
102
{ACAD_REACTORS
330
9603
102
}
330
9603
100
AcDbXrecord
340
0
  0
XRECORD
  5
9619
102
{ACAD_REACTORS
330
9603
102
}
330
9603
100
AcDbXrecord
 10
0.0
 20
0.0
 30
0.0
  0
XRECORD
  5
9615
102
{ACAD_REACTORS
330
9603
102
}
330
9603
100
AcDbXrecord
 10
0.0
 20
0.0
 30
0.0
  0
XRECORD
  5
9618
102
{ACAD_REACTORS
330
9603
102
}
330
9603
100
AcDbXrecord
 10
0.0
 20
0.0
 30
0.0
  0
XRECORD
  5
9616
102
{ACAD_REACTORS
330
9603
102
}
330
9603
100
AcDbXrecord
 10
0.0
 20
0.0
 30
0.0
  0
XRECORD
  5
9617
102
{ACAD_REACTORS
330
9603
102
}
330
9603
100
AcDbXrecord
 10
0.0
 20
0.0
 30
0.0
  0
XRECORD
  5
9614
102
{ACAD_REACTORS
330
9603
102
}
330
9603
100
AcDbXrecord
 10
0.0
 20
0.0
 30
0.0
  0
XRECORD
  5
9611
102
{ACAD_REACTORS
330
9603
102
}
330
9603
100
AcDbXrecord
340
0
  0
XRECORD
  5
9612
102
{ACAD_REACTORS
330
9603
102
}
330
9603
100
AcDbXrecord
 70
     0
  0
XRECORD
  5
9607
102
{ACAD_REACTORS
330
9603
102
}
330
9603
100
AcDbXrecord
  1

  0
XRECORD
  5
9604
102
{ACAD_REACTORS
330
9603
102
}
330
9603
100
AcDbXrecord
 90
        1
  0
XRECORD
  5
9605
102
{ACAD_REACTORS
330
9603
102
}
330
9603
100
AcDbXrecord
 90
       70
  0
XRECORD
  5
961C
102
{ACAD_REACTORS
330
9603
102
}
330
9603
100
AcDbXrecord
340
0
  0
XRECORD
  5
9622
102
{ACAD_REACTORS
330
9603
102
}
330
9603
100
AcDbXrecord
 10
0.0
 20
0.0
 30
0.0
  0
XRECORD
  5
961E
102
{ACAD_REACTORS
330
9603
102
}
330
9603
100
AcDbXrecord
 10
0.0
 20
0.0
 30
0.0
  0
XRECORD
  5
9621
102
{ACAD_REACTORS
330
9603
102
}
330
9603
100
AcDbXrecord
 10
0.0
 20
0.0
 30
0.0
  0
XRECORD
  5
961F
102
{ACAD_REACTORS
330
9603
102
}
330
9603
100
AcDbXrecord
 10
0.0
 20
0.0
 30
0.0
  0
XRECORD
  5
9620
102
{ACAD_REACTORS
330
9603
102
}
330
9603
100
AcDbXrecord
 10
0.0
 20
0.0
 30
0.0
  0
XRECORD
  5
961D
102
{ACAD_REACTORS
330
9603
102
}
330
9603
100
AcDbXrecord
 10
0.0
 20
0.0
 30
0.0
  0
XRECORD
  5
961A
102
{ACAD_REACTORS
330
9603
102
}
330
9603
100
AcDbXrecord
340
0
  0
XRECORD
  5
961B
102
{ACAD_REACTORS
330
9603
102
}
330
9603
100
AcDbXrecord
 70
     0
  0
XRECORD
  5
960F
102
{ACAD_REACTORS
330
9603
102
}
330
9603
100
AcDbXrecord
  1
{F624B5EF-EC95-4319-84F0-AC8A6FC7B66F}
  0
DICTIONARYVAR
  5
1C28
102
{ACAD_REACTORS
330
1C22
102
}
330
1C22
100
DictionaryVariables
280
     0
  1
1:1
  0
DICTIONARYVAR
  5
1C24
102
{ACAD_REACTORS
330
1C22
102
}
330
1C22
100
DictionaryVariables
280
     0
  1
Standard
  0
DICTIONARYVAR
  5
1C23
102
{ACAD_REACTORS
330
1C22
102
}
330
1C22
100
DictionaryVariables
280
     0
  1
Standard
  0
DICTIONARYVAR
  5
1C25
102
{ACAD_REACTORS
330
1C22
102
}
330
1C22
100
DictionaryVariables
280
     0
  1
Imperial24
  0
DICTIONARYVAR
  5
1C26
102
{ACAD_REACTORS
330
1C22
102
}
330
1C22
100
DictionaryVariables
280
     0
  1
Imperial24
  0
DICTIONARYVAR
  5
9624
102
{ACAD_REACTORS
330
1C22
102
}
330
1C22
100
DictionaryVariables
280
     0
  1
1
  0
DICTIONARYVAR
  5
9626
102
{ACAD_REACTORS
330
1C22
102
}
330
1C22
100
DictionaryVariables
280
     0
  1
1
  0
DICTIONARYVAR
  5
1C2A
102
{ACAD_REACTORS
330
1C22
102
}
330
1C22
100
DictionaryVariables
280
     0
  1
1
  0
DICTIONARYVAR
  5
1C2B
102
{ACAD_REACTORS
330
1C22
102
}
330
1C22
100
DictionaryVariables
280
     0
  1
15
  0
DICTIONARYVAR
  5
1C29
102
{ACAD_REACTORS
330
1C22
102
}
330
1C22
100
DictionaryVariables
280
     0
  1
0
  0
DICTIONARYVAR
  5
1C27
102
{ACAD_REACTORS
330
1C22
102
}
330
1C22
100
DictionaryVariables
280
     0
  1
0
  0
DICTIONARYVAR
  5
9625
102
{ACAD_REACTORS
330
1C22
102
}
330
1C22
100
DictionaryVariables
280
     0
  1
0
  0
XRECORD
  5
20
102
{ACAD_REACTORS
330
1F
102
}
330
1F
100
AcDbXrecord
  1
dim
  1
dim*
  1
*
  1
*
 70
     0
  1
*
  1
*
  0
DICTIONARY
  5
8CDE
330
1C47
100
AcDbDictionary
280
     1
  0
DICTIONARY
  5
963A
330
3A
100
AcDbDictionary
280
     1
  3
ACAD_XREC_ROUNDTRIP
360
963B
  0
DICTIONARY
  5
963C
330
39
100
AcDbDictionary
280
     1
  3
ACAD_XREC_ROUNDTRIP
360
963D
  0
DICTIONARY
  5
E
330
C
100
AcDbDictionary
280
     1
  3
ACAD_XREC_ROUNDTRIP
360
963E
  3
FBXASSET
360
F
  0
DICTIONARY
  5
8CDC
330
1C45
100
AcDbDictionary
280
     1
  0
XRECORD
  5
963B
102
{ACAD_REACTORS
330
963A
102
}
330
963A
100
AcDbXrecord
102
MATERIAL
148
0.0
149
0.0
149
0.0
 93
        0
 94
       63
282
     0
 72
     1
 77
     1
171
     1
175
     1
179
     1
273
     0
  0
XRECORD
  5
963D
102
{ACAD_REACTORS
330
963C
102
}
330
963C
100
AcDbXrecord
102
MATERIAL
148
0.0
149
0.0
149
0.0
 93
        0
 94
       63
282
     0
 72
     1
 77
     1
171
     1
175
     1
179
     1
273
     0
  0
XRECORD
  5
963E
102
{ACAD_REACTORS
330
E
102
}
330
E
100
AcDbXrecord
102
MATERIAL
148
0.0
149
0.0
149
0.0
 93
        0
 94
       63
282
     0
 72
     1
 77
     1
171
     1
175
     1
179
     1
273
     0
  0
XRECORD
  5
F
102
{ACAD_REACTORS
330
E
102
}
330
E
100
AcDbXrecord
 70
     1
 90
2070111275
 71
     1
  1
E250631A-82F5-4826-B299-A56DA01BC2CC
311
504B03041400060808007B42744780882D6D15010000A80100004F00000046394132373444362D433738442D344536352D423834342D3330363442363946333830432F4173736574446174612F446566696E6974696F6E4974657261746F7250726F706572746965732E62696E75503B4EC430103514200A0A240E40416BEC
311
F817070921E74745030740DE6076237993689D88764BAEC10D380C07E1040B63ED42C55A7A9EA737E399E77943087DEF0E50740058C37D0AF1CE756ED5368FCDC22D2D3A8A8AEF67D65F02CB8C4E6A2339D69AA75824C08C2C15AEA4522C11AC565C1E42DD31A0742F76F2636C79DF86C6796F3BD74FE10C84DD8C8BA51D61
311
96F557F1D1094231AC01E8371162A7F9D65134F90AB0CFC3F5AD0DC18D37A4CE0C4B053828525D62512989732D04E654895C6535D7B4200F2EF4D3AA7181544C52C5138335AB25169A299CB32C834FA8D2D0242F5851907131C5D59C471BB3CEB69E50B2B3F03474F30D581AD8A687F4DF0E8777FC19F5AF3D3ADDA7D3FFFB
311
7C88ADFE03504B03041400060808007B427447C691A64820010000300200004500000046394132373444362D433738442D344536352D423834342D3330363442363946333830432F4173736574446174612F496E7374616E636550726F706572746965732E62696E6D91BD4EC3301485CD8FC402A86FC05F8732588A1DC7D4
311
53123B2D0FD001C49F88924019E85021B1666463AF848484C43BB0F20C3C008F9085198ED39080D22B7D39F71CDFEB48C90321E4BB2AB46409E4786E400FB34936BD4946C938BB8DBB0806DC73A4CB42DAE7438F8A3E975473A568E8C928749836DC98B566D1AEB84C445853D413C2A5427246F55047941DB88E91C6A870A0
311
3056BE97EC9F3DBE7FF53E7CE832B21CFCFA52E151853F9F26A413904E19958F6ED0F40B3B2CCEAB6E168E21AC078A15B81C54AB9F95AE236A97FD8ECD497D496B307D0B5AD9BFA0BD6AAFEEFD9929FC5538FBB736C1E83EBE4BC6544FE3499AA5F6E4081C8357EC6D414FC0297881DF869E830BF00CBF03BD04317882DF85
311
26200533F83DE815B8063F504B03041400060808007B42744788E57597CD3F0000904100006B00000046394132373444362D433738442D344536352D423834342D3330363442363946333830432F5265736F75726365732F45323530363331412D383246352D343832362D423239392D4135364441303142433243432F7468
311
756D626E61696C2F302F67656E657269635F706E67355B773CD4FF1FBF73E71C0E67EF7576C9DEF3EC995D46C6A1EC5046649CBDF79E192942562825CE965D8A868C2842C8DE9FDFD1F7E7F138F7078FCF6B3F5FCFD7EBFDFEC41B196891913091804020321D6D7513FC77D8C5070EC3FFEE51B21F068154CC75D455CC028A
311
3EA68992803810109FDDE5D5CEC5521B28A1B422BF80741695D5B529DA1C2D058AD2388BDA9F476F7C2CADC939304173DBF48A452BF8A700C0C70C3D121C1AA15A5270C22E2B9E28763651F7DA0D12CE11077B2ECD0D560B5E3DE2368B1E65C5E1C87384A4CC5F2D9FB8BE39E9B77C753783A37998F5CEF1B4FEE553463245
311
C9712270880DF339E0B882A6BA713D865F6F384C842D440934EF264F4A304F8DE4EEFA1E2BF5E2D91F5ADD9613D6E31DDB33ED31DB1D7916CAF091286EA3D31B9CFECB78BB0060245B943C4C040119FF780A74DD308BA9D028678674EB5504ECF284EE814DAED07440BAF649BE4B55DA2890F4D73E2D489A59EE54FDB0A85B
311
59F2F52C4858A02705C4815A792B0C4A996A2023ECB195073E115E3E3647F64243A8338F2000BCB58DA5692C7E7C3D413F963FEDF3CF00FBB0F831A9D51360FECA43819F527B89FA260EB63C5DA676830AA3626A3693B23F1A17A0DFFCE3EE164E31B5365EDF0C89EF64D8E38AB0BA9A1117D7C3A0EC44F44F4023095E80BA
311
610DE336D0F99593A88BFC5306E72DF98F7FD132ED95878DF2964EA7E43071359FD83B2BDF9C6B5BDF768F0F3C0FC351199526F53D9460A34511F75D1B63E488178569472C91A94497807A3FD4A390C6558F26D416365C3656DE6E769DA9D8FC73774E1709812842DD8EF96AED1960F79D21B395CDDFE6F92CB4EB962A4668
311
C76990E2EF29798C8941D67DA50F4A5F947872460F1F6FDB794E8A29FD7AC0C0D6E0714339CE258FB17AE8535221E3464A10F29A0BE5EEECEFC5675926A89F49EB14E5711894F6586DB5754EB4D5DA9C6437EBA57DB97A24F8B8A8DB295FFD73266CF57E82694DF5166DDF93573AFE9C9C5EB05F8FEF8E89E0A8917B0B3724
311
DB7BEBB53252581EFC3E38166BA131A3A5B42FE2AD00A769BBFA4458D2DE7822F8C4F63D0B8E21B285AE13325F3410A435C648C9D91FDEB109E73CEDA7BC796961AF79175E1A3CE4C5E8B0D009B0C9E29EFD98BC8E97554E3D8D838424E270F7685226E5AC268E021EDE3522D583E8F20C0BDE2959EF5BBFEEDAB32FE9A3ED
311
0E39F211A86AA9DEBFC68182EDED132AB8BB794442D2D7EA9F4D8BFF52BC4D55BB165124EE90A42D101E67BBBB292FFB4F66DE5BF2300E44546757DA7CEF8932BFC9F92A0707953491A55C5A5ACEDABD9FA1AEA01BAC3DC5A24E22E7C47213493996EFBC369D086ED9397C9BA6C7F9855C7BD5E15BFC8C53DB3D2A4C5901A5
311
7ACD2FBDF4D1676E95338B2C2BCE65FDA4C64F5FEFDC7D9CA5AA1FCF11E193F2FDABF0F4916BF13FB916A224380E6462A9815F2300DC49CC4DF8D055CEF76462F4B7A7ACA7365C2707891370BC1D0AA6203C44CCAB47084FEC057F27FFCD57F89B8B9852459798A675C66BD7CE572CAF71FF7E6D7ECF7BF62CAB7B3F1107DC
311
D04DC55A3F9961700286141C94A4F771FEB2BCDA2DDEE0CB0BAE402FF1DB0100F8E475DFFFC074DDB4498AB7D186A7654DDB1CB680D703D47CEB4E72F8CB13D86A4AA68116E26387B93FD6738779B34FEDB8E517EDF2BAF28D9BE93A1D3A164320E07D42E514725C29515FF361754213EDE06B079A2E99EB1CA82A02019EAD
311
EEB87B9AF005BD04BBCECB14AACD6B24EFBE482194A97DD32400685FF1FEF1544D1B14EFB1E7F08E6D2CD2AF52DE757F35F5E62332EE88EA26417AD5C3E0E319D68F25414E6D672BD4522B278C57D18F0113921C71D96527E091F00CEB15AE23D24667369BD3CEFA10C7549D930890BA4366F4EBC55F01F746109F98ABCDD5
311
A3EE06619C6AD78AB33E48E4C9BD21BF7478B385EC05C4F8987E2C1BFA0A60EBEDAA0AE0B015C2720ECE180FB6F2DEFBEB822D96338C9B63822183BBF52FB664A7AE57003AABCE512BF77E7E31BDA2E739AC4C131657DDFE5225E900FB56CC01CDE808FA4A9C9DA16AC679656BB64796283D89812B8F91136AE18EE5EBBAF4
311
7A73BE3C153EB5D4CD491B4BFB4FE690A4CF9ABA08C0D8AA64220C438C96EA6CA80B58FE5761E697B3A292EB9FBDA502FA863E49FE694ADDFFF9D62C520BDD1A22014147A0903A05B9B729F54272EF83931FEEC057BFF8C8055C279EAC5C0011804828734024F6CFA319C9CC6867C727184465CD9BB7ED386AFFD96B294A85
311
E3802FAE47244602D8273615952B98C4F23F7EAE4463D9D638EEE374A20959E0FE519C4CFB0FBFE5DD80C2AA3F9DB961D1BDE57E67C9BB47B77FDD74EE3094F5DBBE3EBC1FBDB7393F5116263009E2EFE1AF9A221B2AE234C902BF70E9F280ED23E73908361565964333A3F01D0B006AF32FB21AA1316744B489D5A198E852
311
99241735BE559675130955C902A8ED761FC0DBE337A9F91919AF5CE32AF902ADF9AB2615E00E8A94586BA1A90839B61832FF1BFB76D2EFADE6DB1BA04CCAD3DA649E7E2A0219F592E22F2AD54847EEA8E42271011E9074F8F3DD9FBA6CDF88FFC9FC7E811AD1CA8F4557CE4AFC7BBEDCF0114A48689F20A584520C74DA8127
311
124B767E2FB91A6B186246727BE63C9445BAE02088D58B8EFDC0F1072407CD9B89A13F6303B4A928F593AD489B58E6869325790ADC406036C591729FE14021F94B7796BB11848D463536A092A26F077F94639F7CEEE2A724C66EC885F4A24F8B8A0AC321F8FD149BA529460FAA34E4663C02D41FDF80BCA222D42F0ABFF849
311
0F4FA74C673807C2051D8E467B47B616072860069A9A303ABA9B319D58404461401B0A0F9BE5E1E151C14BC33B32ABE03DDE91708DFAEB15E7C0D593C86BB7D7EC17BE56E57975F077BFD5525F3A1A361D584A75E08CF29FC7B44B2B3085014F3A5A14517377C3F6B8F37E59514C3B12F8AACDEDDA4DFC49BE5710101534CD
311
6FB6DE15B50F11A09472AABA727F0C49D9CB906B158030065F48EB3625E010CEC1D511D0053474B11E6A4F01C0D6EF1BED3A944FDEC70E0DDCDC756C86545910E0DAE3BE3AA9A404574C2995CD5CAF9549226BC94B4F4F0F5F9086F418F6B32346464610D8BC7391D3C3A3CCF04CFC1FB2A3A3170E369511868F14EEA4E5E4
311
38CC73DB1F3248AA94B6B2FF33B222FF3D1E7BF146CAD229770158063BCE4F5391964DF62F7E52A7BE0EEA829C9E13C4C147D6F93FE59E111DAB5E4594D6F3CD1AD375EE039930EFE5AF2BB2D41C83C7DABD8C659BAFBE8FAB392CA634F3D15C1D945DB4588D2B0824A4EC928AAC565557CA2F0DAA588CA5BE30B3A8004F7B
311
F005E96CBF891D7F18112A3619FDF530DC8AA64954258E1811789B5189B49B4EB53F5F89F7D37523894F3EB57B373763C91E502F52CC99EB7BDDF933FC324C4FFC2561DFFA7339FAFDD0A4BFBE6D3A8FF9ED1FC49898139864602458968913181918F719CCF5A68B2EE9C1FF050E34E63107003B8120FA982C21B30A874E4F
311
5E4B38D5A8290C4B8D9BE48A0BE31EA995BDC37AC6DE90BA17D259DEF53605D55922FEB1855D915B659FBEB350EE0DFB2F9F766E1C84CC8964B75D08667445EAB966015F63A18A9E0A325C1B3DC628C0D3CB60F767FA93CC65F25458BD23C3B312716E5F40E5858AC06EBA9AB14F95DB99147B832069201541D09A0D856E12
311
C629CF32683760EE855537D1901988D5EBC156676C7DD51D7207CF3267AF1D76C2AD867315E44618015313A98B19941C696FED3461CAA9B5415F918556D7802EDACEFD6B2E45853A9735DFC9DBF7E440F9319F8B6805A973BCCDC76C069A9144E51F187EDCC12FC31B5DEAAF0A76137199B106EC84ADA6B6EE697D4E6A96E0
311
07417F4E880E8B1E89B4BCE9D81EF611E2ED8F0C1A6C25F620FAFAAB656A7C42D464880E8AFAB0E0FC8EA38CA9A8AEEAEE3E4648BA4680270A89743CDD3E6C6CBF34B7B640EFA285ABC7EA0A1E28F3CC963D114A80123EE66D0AF7D5380EB41909B605AB4765B709B808590458157E69BA1378FEC4B48CAF6A730E3BE3C5EF
311
2DD1A5EAF94B1DDE50CEB55DDFD7EE9A16747FA4B223359FB1FCC69E1194892BABB93A1D5C4E807AC0EA2E30180811E77A2291F6E7F7FAA5E0F60215BC6024E48DE436C511F0628B8CA189982D4D83CCA17D305A7E923C37941CFDFDCD93ACAF735EF5F0E61BBD3E6C41A59B242790D3A3BAC7064DCD89AA2E37214EC83982
311
0949D5CAA31E240D2948E48F690298974A96BA9A8432BC90F5071D6537C9666EA4564796B7AFFFA548077BEEA75F63083435074BA182F3699557397F71548383FDA8CA34D99B981E72835ECDA5DDDC151315173D05A21F651AAF8524E88209E2E7A737ED1045800CE3390050BCFB8BE588DF111617874C62575039CA588EEF
311
DEFEFE319B739DE2EDC147092A262611E159650E787917885EF08F1F51B8F2D8A71D60B58B190FEF9541A1BE94BC19FEA50784DA1419FE4B0FB51B8D36B5FF8E1286FD8AF42B91E59A5F1CC4D60174E764045FD8C57B18209B217F89A62252BD20BE0E63E12B8E8F029FE19E0E8D0870F58721A557082250D5424F79093693
311
76E41666C0EE77CD87CB283F661D5FB6D0DA023CB67320A20DC7BE661E9E1BFE5463085C557DA1FF9BE835733766C3D139F2CF9E2208873AD0EB4814DE9E6BF2CAF81614D4D43906ED1C05A3265CABBFE192770FC2F64F940CB6B17B5F166F133C9AEEAD2641807C3E69515171DD74C4A85311513D6EC9530B3B601B6BA3EB
311
FF3B5C3D2F7D69765141E345F75433953D013ADDF8F6AA7DC3F4A7563FE5C7D367937E2900D7EAD0F9FC9A4A1A9B5BDF1FEF08532660C01C5D6DE22199AA774383E306DAB87E301ABB7D213887F9869D4942D0D71E94B27EDF216A318BD488D45DF84529EF575AF3C3938C0AAA0215B01994153E2054A0B894DA5C78498063
311
3AAD48576957CF4AEAEAFADC7C587368551C73DBE1E57C58AC713303A8BFC258BD04B51724459FF9E24C03A81E0E0679CEB9B348C0DC998FEB9C6D6EFA77D247CC8F92D3848599ED89A23218D0636465AD1CEEB7DC140D7426F83491C4E8E8281C2FB35240918FFECE880CA2A42D70E8B20B34DF5221C7DB0CF90ECCB9C745
311
B37A47E9B716FF7A97B7A252C1F3814DC7B1E1A7F72B8751D524EF7CAE45B0C73B3BE7D08ED39781B380DDFC9AA4A4749C9493DB5BAD07A6EA6C092FBD0E85DB004DF06B8C9D3089C5320187E4CE1846158C7EA7DDAE8AD9AFFF21AA3A1026BB06A259845E8232DEE62811A4DA9CEAB3A4887320B76E2AE5615EAB7BDF738C
311
BDD01F1E64064BC13D9EC53576751CA8CACD58B3CEB0E6CA585BD089B2A59B9FC101403387AADBDBE70586B93D64BF3AD4453EF9C3B6A93817E8346991798601344F79A83C51F3D50F7BF2683A3605F51A72449489E0EE6169C749C60B1035651103AEE24D24E51A759C840DD3FC6504DA6FE107510E447B43461C79D22970
311
B75DE5E1BD3007D1AFC619A4A4A69B5626AF5E9B8374E20677F77E2F8E73DF868E8BEC7EBA7B6A75EEF7205E1AB9486CB642741D6E03FF13FCCEDB1C4AC129886268B01CDF4B124AF797CF784F3C6DEC97A17D4B558070A0F1C04DA4FF9BDBF34159AEFE958479824B3F58EBD1E19088A2AFDE501B6F2052368A3FD0E650A1
311
79EFAB1561E1D27527077136E652676C3670F42DCB3352F48F6BC86D2C3B0051727E41A0A4DC6CE2BE9D47F5CAA2935A3C0539AF080665997194ABECD723B08129CC5B6B21D2E7D54CD4D12610E7E9FB8306771A89576C7A982002775ED44F3F744CF21EEBB27A631671D921938AAEE3EB0D19CD1E083727F607823E817BF5
311
99DCED5394E37EEBC2E88782E638920CA641EF74D4CDFCDEF06F4278ECB18E31E7E9876F2D783C8BF429C75395F57E98C2B495A3DA077EB3AC3C158608B6B57FE3EA48484D9A480096FCEE0DE880950E7E5A5714131C5C41AAA29FD19AE81AC145FA1B9E85C7169A5AB837B213493DF7E9AA4B5FBF9CDEB36EBD21EF1181B7
311
CF7366AB2A951D01E37AF4EB835D1BE8C117CFBE7625D2EBCDB0B20C5A4B45CED0BCDE3EE8DA9DA78C2E21DEAAFFD1197E463C33CC6A80FB785669B856EFF7A8CCCA2841B5A5369173320B1170C368B2748D81062EA0296E5E2D95D7667A4A46D98A6FF475C76AAB0A8C8D45E226FAFC9FE0133EA9F60111F99CA81ACE03A1
311
D14C89E8B0D69079C91464FA1D99E651D0EAF606F345C42A8A1AA9BA391031582B96D5B4176A77AADB01F12FD298A75DEEBB2C82F0B8650E880722F8DDD90C56A7A058E5FDEF1AC93545BA27367C76F5D8F9690CB6F8DAE141EDD7971F0FB548A2AE435F224D6E5954CA155512F7332029D5A1230854B79F258EC5FFDB09F5
311
F6343A8EB193229B7F7E79B3E48F8E183860B38C8269D1B53738FF1E0BACF6AADA6D4869E9DE708E79B5DADCC09B1BC76F649731CFAF59A83FD8BAE4C749D66FA87A3810D4D62FFE826FA400C0F325D2BC0F3CA35F5847B82A2ACC7961745C823E4D863D54460AF792CE6F79B5C7A33B25C3AEA6CDE15A919B6367D781E9D4
311
4F61BF828672594A3E1D9EDD6DF179A81F27EAC05B936575D73E05C209DDD2115CFB705DF9BBF3C911589B3640735E9E618FC9C36A7326C82B2205E244C55D56FDB9D5DC93CE958D4BF8174D2B3DA54CB3C09F2C2A6DFF73D23B2197355761AD421EC581284A7EF8DE2CE3497C0C804D49B41DFD6A7360844E5BEFFB495CFC
311
DB97A4595911CDBA623274CE852B5E278AF0BEB1770E9D37CD977B2766A7DED0E94B840E1E95E8C77DE5CB6354AF7871427C28ADBEEF7BA0A28E19DE9ACD75F379FE373EAE6DDDAE3834692F9C2B03B4FCA8FCA9ABE8EEEBEBB725B88A7C90941E850682CA04061A7DF0CE82ED49BFAFFD42C309818FAE14755CAAE78B0F73
311
243ECCCAD7DF58FCB9CDFAE7A4D3E6671A613639130D056C8383C8F4FCF4808C331E544DD26E4755D09EA05253B3049A1E32587CC25D72E073E2CD96D04A71BBCB0038FEC3F53D254199C3CDC67CD66640269431860225392B2CB3ECD0B4498AAE78BA1994246AE1EE78F2EDFB79F6C6CB6B5E279C4D373FBC21CB2698C9AC
311
BBEB6A4BB6B39E16AB0E421CCBFC7654D81ED86022F9BB522146F9F4772E2D0E4FA70120C95A85A417BF5078B232F4754363EB1750B2AC2148EB46B1EA72AD9B4D23ADCBC589D70106C3EC2ABEEED84DFE28E718C6C83502C28E9FDD3B09DA0A6F6F7B72B706A31C9E2A331EE70DA56A083D2177BFD63C55B11D8D949FAFCF
311
90B23A1E24B9B5018B9A17E99F2890EC302F330FE7936E2C23F0D237EC8916F5166AB84B62A21BB0B950146962D754F92CC2C8877BED8FC7B7B25726DD19545392570B3A2C66B58F027BEF412E552D12A588C4A3CC5C3193FCB3485EFFF700D0B9EEC077754A33DC1FB9E25AF814628F91DDFECB667D3F7690803F38D13F8A
311
E39353523BB08FC6760144AFA2CE28236F65EDBB3D5F59A57D612B99E3D7E5F8A851666BF9B5A6658EFC96EEB37A378ABB0EB3FDDF1303AF32C41BD1C8560745D7BD81066B0D6313359CF488563D3BA3F8E2185D1FAA3EBA1397C9D0E3DD232180A4DCADB6AF25DB3AC3CC26589C8239E66E81547BC7E2F328F9884764CA37
311
EB5DBE390DFC03A5246B456A7C3684C4377D0EEF9A350680FA9A077E8B2957B489E09AB1AD41316944C2254B5984830F691C93CAA767EECF976FA5647538830B5E63236A6F0365C1E0F3E327F24FE35EDDBD7360B0F7374837409F7A6311BECC12B7026D4FA1AE204FA3F5FE904B1F420C7A9044AE58E403E7C4848E7DA25D
311
C9EDAC79DD756FAA26B9EA83ACE8A214A2612A22AFA19DAE7DBAC5F8CDE1292A485F98DAC731A29FE01A3966E96BCB9FB5A4C8830E1B9AF0C54B87FBE221A097036E5D28D1F869F810C06A9BB0AC0612F69AEBAF893C6E7AD59460208BAB3A6B09CA4F6BDDAB8CF0D1F84B72487498395A70DCD754796E271099A567A55CF2
311
42BBED64696378BB6CF25EF0FCDB589F3A82F1116D010A9AB9FA4358809EE0C973A2B4229BAA876A70B03AB49CBA7FBE71DB1832FFD32F9BF2C8E98075CACAFB36921235D0F552B6A67E94E094097A5D7DF681B40623DA535ADA7A9AD8E9A62407D7C9A5AE51D62A17A83A23728DE86BB56115804D3F2675F2C6B87541A0FC
311
497BF0CA86420F558C9859EBE9FAD62747E323E3AADC03FDCDDFE7407B09DA90B44E3185723C5381EAEF589765E2F7A099BA46695BAD60CEF3491B8A171F5F56444F7CE9455312C3498C74173AEA0214EC029833B34B650CBB5A5508D5091665309642791708ECF27CF11DB3D797D6CFE474453BD4BFADB768094B2147814D
311
81C7CBAF8228DCAF5564B5891F5EF6A860EB2E323CB82AB868D8EA048880D63B0DE5341F1B3D53297B928A11E15F25E5148990F710747C3509ED14909C552EBE3973246FCE55D00564D8310BC3EBC5085D08D806799B77D6C57FDF5E55837F9E934F09C03C729271B64F12D0A9F9E938107CAF7BF1EC8CF1BB9B42363D3307
311
0F4CACB425E605DDB0A34A12BB936DE286B9887A4E2E558F0886498BFF49C311D96C277CF6A9FC0D75AD0ECC5226D7E0E3572012E56D7FDE4410CEC7A6D0F997F225A2055B8B92E3956E875AE4993CB3D4C9063AF98FD45E1BAB165640A43439A2C9181A7C355B297C0A0CCFFAE19B6FA3C2BA238A885FBC98B8F6DAF4B94B
311
97304878DF4D8BFF6A4AEDF79E90ED4E68F00CD7299F4E0D83E35601AF0CBEF18C1E870E74758FA91F5131075004DB3CFCF09AE1DABC11957FD9808C92E8A678CE9DBE40DDA0E0D1D505AAFBCBA208232BFB6FB3704E8985E61ADE53DE74152F5C7DE74B1DEDCD37DC3E8FB30D7EBA8B9EFFC3606BF90B8D438279CB7709FC
311
7C00D327F41817EEA71CD9E49FE9C8C9A81C70915D9F0F15958EC5AA4C3BBFAF46986B90F188BDB24B89DE3C6F29EC3E6F66D84856EE96A35E657CA41B41EFD8DBFA16AD6E91439EA92B40B21C053249F51AE50EB0B24C770FFAF40DF12C8436366819C48E36547D4E7B72FE2BBF10828583057814A668BDF183F6B2E58DFB
311
151103E56303E63D00F39C27C4661605DB644D19175D02E3F0241E8FC3458D17AAAADB117CE9EEA690D0DB01E634878C04C2C9310B69FCAB831151E3AD293BEF6E46B0ABCECB50F5939B39C613D41E81FAE8D34CAE3C4566B761D37185FE864AC32FCB71AEF39DAA5BAB88609BB980CD2F07A8F941653B529567726E2B2A58
311
D079DD57E1E5E31426CF184A04D7B03B985F276D47406AF276FE32E3328BA866EB1FD39BEF57863A317634AA5FE467409B3873F5069EF0D71AF00AD189D17BA1974ECDB2D623E9E14086386A6AAB5807825C37B015BFE892AFD154920EC437EB945D958E18622E1E0FE2FA06557CE4BB9BBD05A2D40E774DA2B65473791E31
311
4B7D6C886820B2FCFE4AA272B3B8B15E7344A145E8AF919B5454D89D36D413E87211186BF6F645E5EC94DCCE8E1C799022E4EC9BC86D7A0F2AFB1FC4B2CE48F84B3F49ECE65BAD24CADCC07EFF39AB06BE9E6B27A059938EA7208838455383DDBCFCD967DDE4650EF92A14FF933C975DB20BD7FEEBC4487576485963D757D1
311
6340D9599FEB362F775F38CA4185A86F74B629C81B133644A3B18FD056E997E0734F9BE26D11C0AAFC669E2AC9FC41D281F8B2E1C35AE27BCE05F3DA295488096688719D974DF1B5D182DB7792288697F8763CFB43562C1CDEE11C4AABD5C22B6E33F6F389CFC3477C5919DC0D533F8A7A1846B7ADB60ABDC26C43D0CFC891
311
0B7C15EE22675BD02702ED39DB77A87A192CA7A543E6205B979B9F5A6B512A3CA799E198B2D5797C0AF8D1D872CA455D4D431A7879D4DD76110B5FF7F4176B54477A9EB5E4A5D11214FDA585F0382751D8E2582BA5D2075053298FEB8F1537304E32CB22C2E2B693DC0A760B1DFCA751BDC445AFDCBB12820ED85F6D529893
311
3C7EF1211E9E057684056CDA3FEF3BB6052355E162DF27C59E965A8DDB7F9437EB72CDDA3A090DE65A5B2F50326247B7EC67B73ACC7047FC9B353D6EE990F772207C6EC52B39DC2F3C0754821DAB559F7C1809C7D0DD5B0499D0442E0A6E391B3D5DB46D11E731E6794EC77523FBDAA242ED67F9FA1FB684255671F63C9BCF
311
E6E7E896D51001A6113EF2298BA494E0B0980D1FA5B9D60796554C02256B1E0345FB7C6186B6A19D2DCA270416262845FA4F42DB5D9B0A0B6F07FCA2E56C242522E001E0CEB734AF310FC8BFB57E38E03AACE93B3326A2197891E68452B26A6307FDABFEE0223D3C03C3C73D2D5BC054C8311F12004CAE488E5C29287F8156
311
A2CAA4AD0D7BE6B97264E4139F437CE73ADF52E5134C52B819777C18B323A5924E4F67AFD13B1CDC3A61793A79FAF5C0CEB718E441071E797C6DCCB9EFCF7E4A1E9F3DF3C2F9C9E8294E9586868788C972857FB0556D7A26941A7EEB9B580AD78EC40B85DC906B4120A563CA3B87797ED612D3B035962BB75F6515A393F4CB
311
057F564CDF54F2E5A024514E6A1F901DB80C7E70B1FC05E356A7E72FABF4775B3E3FB8F70A2A8E7B6A94542BB304157978CCC999E707A29CC795E67A59CC546A5D47B368954CA7B6E75EC9E1F6FC73CE3B4F71F8CB1A6B15923D61EAAEB14626AAA9D04A26EB9C66CD1BE86CA31A5D8703DE04CD1EBCE4F5CCB62F93909AD1
311
1E55799A781A956ED27D3E738F4538CB04ADABC7DAEF20BC35BA6A90BCC1DC61BA05F20D8832FFB9BC9B15E2DB838A0AFBB7E0C82A562127E0446894F427794C3037186F622BF24DE1B00AA10A23BFA47B2A180D6DA5AD6F7326FEB8C100C2D7142EB2A0B2A9D1008A09BA343D70E054AB69E2A7EDB783CBD92537FAF4A44D
311
1296AC2792729104B3276C276C951D0CF3CF3F1E6B017720A7B8505A5FF9589365979678C36F1BAF759EAF57C60F1FF5FE9DCF5F8E764FF25A2D06CF25117A8FED51884C13B2B750DB0E4F5E3D64124FCF11F0AD8F1CC3B3DA4B38ED22BF1CB2585EE6BFEBBA63FBFD44F9537B9B37BDD6B358720F98A8125AED4349CCFEB0
311
E135F19E208A04CA7E2B10711185D72E381F448036EF57C9F874E54A971CA37A639E986AC0226DC5AA00D5B14FEA9192234B3DE617814FC221C92F33F1D392F297731B567FD98FD91D989379AF567A65B8ADF177591DB90FBEA99BF4ED11B16E50A0AB1DBF1156D034BBE04D69D08F939D8E92BF525A1DDAFF80ECBC95D8F4
311
5D3FDD289FD23F7D8B452F8EBB34EC082DEEE68E18EDDF072060FAD2AB1504DD4879BF67099FC58F6E9DEFBF645D16334A3E9A127C6F1AF6132CF287E433B43A0EE93812B4AA0B194E03EE3FF91EF9C6ED0074A2F6EB18A96A7C9890B1FCDA1F2095E944DB911ED54C60DF16FB74C8CE9BDC7C54C4F14078CF73C2FFF1F1BB
311
CCD7CF64F71407EA1683DBC410D226627F66E509060D5C0AFD611DE681D509DB8DD12FB1265B03C6F5C55FF4C30BD94187FF692B4F152982502F193098A789526A038AB529A52BC0DC4FB6285CBAC10A8B8DB75DCD9BDABBB221E27D1F8DA9F5EE5926A1C8AA9BA9BC09239C6A7F12914EA3B59EFF7AAEC3FFCCE56F1C5C29
311
80AD072793527565E774F4631DB178CEEC691B1F367BEA0CF2907E1D6B854D527065979DDEF002D8B2ACEA7CE21AE297737EDE1D45B31233B73FEA35BCFDD0B09721FDBAF6432681F2FD10C3E9EFB246FD6E854B344ACC9D8A0EEF876A7314B49B6A499FC650B099D650DBFEC7638ADFD245E2B7839DA5AC5F7D5623FC0ECE
311
EC8653FC9B2BDD1AD4D00A566FBA7186DD3C9CD26512551637498CADB950FEC71ADB9A5524285DE328B8EC7EC75D2345AEC6A27C42AF6D9B92155315C80DBFCABBB7DA0FAE425C4FB896B15C9BFAC4FE67DF5A23D30C93DA4D8F36FB15D100050DA6062E22AEC5F4DAC4F6FEEF97AE05DE63C6D38F9E068A20BC5E3B6BCD75
311
320C5090924E7F93640A7735B1A43451C2D91EE62C6238B797349E59890AF3A520DF4A87095F3ABEC2E61F0593416CE46CDCBE0E00E2523FCCD04408588B5B6C9DB6459C786CE378770B54F51DA3A5E1DF2A3349BEAAC234A6CF8993B598B3B25B4B113E353A4D750FA7534749430F3EBF2512E7EA3FD43C6AB9A1F765A584
311
63B306721A15D224FAFE8C6F5E3432D57EE697DA0DD5A9D4866A8BCCAAA9DFF1F06047851408FEC060471D0E3EB86BFAF46E4B5E60311DC3E3CEA147C75CF971BE74689507154FF2D2E92F15CDB2B9182B11459FD8ACAC5A85F174BC94A7F4EE4C4F5CAFA7C02E37BF0BC77B7DCD0C047BC316F562A01A441AFA7931CC84A2
311
8CB9F4AA367EB515778F29BFE61195FA671F4352E5E46E3A64773F1F76EE5EB36D7BCE9BCEAD837A4D77F8DB8C92AEEF6711920D7C7D0F76B0FD0EB7AB83724CD35BCA7D36DDDF5FBB7FF6F04A91F3E2BB3B8F1A43CD659639507FF6331C5F697BCC782AE57D757A27D97F1AB9E0AEDB43F92F1B2AACDF5FEC8ADBAF9F814E
311
2027003BA2F9E144B1938A7A04050AE5D953B82C45619165C813A10E76DD6906B3C16438064D14CDA713AEC420034613E1AC7241904A49FBF87409AFB1FCB9B72FE7933A87D8FBEDACECE4EDCF6A4FE9FB94D5DEB74FAB7CFEAE17EE965DF980DCCA2D04134994F9A2E94D2265DA4FE6AA7B7AC15FACAC2B5ABBCD7DFF542C
311
5314FDAB2E1B9D8B65220B8E2B638BE008E8DCA22678C820C5053664D15E89F2D735B51A84955E81A443545E9FF787BE0FA700A76D136C27DA179A7C6E8939E01BE756E19CB292798063D8B97F44E8A27BCF3A614FEB8BE974A718E86F7EC99B53CA35FA24F61F2B07266684623A3D4CF073E511F3A10A8FDAFAF0078C577F
311
4DF9D339FE7862E5FA47CF4344209E5BF76D783B1B48E152AD281B15FCB934DCDA49CEC5706B1EE8B460F435324A5CAD154725E21AB8044B75A557A79F6C807B9340AA3D92503E866F4274412926C8C504E4D5EF8C0E68DD0B028781A6B4054F11CF18941F101C57CCC796773ABC8DED9CD91FE5788806C05E548895354AEA
311
C96546D55B0E94A59F148D061F42AA398D822CDECA4CDE79E13469BDCC44FDC990F366BA5978C15F97ED80CBFD73B0CD9B8B83A4F6845BDFBFAF034019473FB9A63BD55D3A4A7284757071574029A4D016DCCBE95DD679EF3C4880BF169422F8C89B68A988D2B13793CAED4F74DE7486C72DC94DF46B8E93D8E02EFCB1FF9B
311
3BA10C8AE7F653DF94F4AF466CDDCEF5776687F7C4C14B63E4EED1719DC2EC482D7DBCC7AE518CDE3D5FF86D39000EC3673C0044E1D308BF05F74D1B5F033A7D1BE7F74BC55BBE3E4A20F920946CA0271EB17BD2B80E5660ACB8A29A79F5E4BBA49D4D945B6EEF4A7EFEAA65E5555BBB57A7E15D2F83C69F30BBB978D2B39F
311
1F26FC097424D39BB33CA3D87ABF64E307938B685BAD44F71556A30B7E712CA4FE600613C3E554B69ADE949A7CFE214DF1FFF05CB82151EC6FC31950239F94CF7AD39DC473F6EA356E5EC2C4EFA04383CEFE985A127484366FBEE3C0EC4FEA363E4F6632AE781392FD45D67B63FB8DF70E82734F431FD3443172A0E30A83D6
311
0982D55FA6A2CF86DBA8382502ACC6CDEF3B907982EED1160E14863FA242F9757347E1544275CCDCF71ECD5F8621CBEA326B8BA884AD7F825781923E66971F04010D574C541D8427A438A37EEF8AF88240EED7362C953F5A81DE2D56109CDE2524EA0F5D2F87308C0C47BD97AD605878AB8589E17CA83930CB5E0DCCD75853
311
D68B1AB136594926DE426C367428E9334AFAFF90ECE221BB5DC9E5BB53D2CDEF954EAA9CD814F0E5725F1965DD458E5F8487683AD86B9D0076BE3EE91EB1CECC5331A67A3F79D8B27587C12EC2A6A70474749F27B4C0BBAFB94B34189E88DC18964BE4121B9137FD516C7755356E50D6714E31ACD222621EBBCD1CFF81D874
311
79056A9DA0E0B8EA19D24CF937DA89F78E8650CCBDC110AAB6C4E46DCBFD0446BA9E2060E81F314AC2031E88135E5476AC0160EF5C0DD2EEF1B8B5CB2D198BE9A554A9093B5F7D7E4B5407DDFCA1D9C152FD97F55BFFFDFE802954DFEC8995B983E28AC92F1971E28F531DC407A1280EB125F64A72E617EFB27DFBCEDCDA2D
311
6F2BDADA36873EE46B9BE1782998C63DA7182BC383FB6FD15DA472B175D7E8B4FC88F38D6E07FEAA3FA3CBB8F6B449ECF14D2175E5C5CCA3A42ABF24CA6C9395AF74535F4DDB38CB84F56614B0FD32D7E19CA5CF988DB4449C40E23DF2B16772594554579094450F56F253CD25EA7F77366FB1CFE79696C428BB64D5A41E98
311
6189427E5E4D7E2DAE3D5BB4972B3DC44EAABDDDD63A2264ECFA5C786EB0EE1FDC5BE34FA0F08376869FD1E61EA06CAE15191135445EE8F0394161C3266A596AA035572BB0C8876180D8B9C77D307DF9DCDF7365ABDA6F3A2366436457A4DFC1F259666569A9E4A79C817BDD5610E5200FCE894A358EC72858D50EF67545DA
311
81C6FACE3D457BAF70367E1E6BDD9A952FB4F56247F58F523B97E640246051A72F79BE42FFA0B3187F63097F91C48B868586F714B0EBD5A00A8412C1236E1298F60C72BE6C96B82B404CADAA304AE9F303176B14BA53FBC2D5E86377E35542019E24D97B96A49B2C0E5006E7795954DEAF5DA58958839043C6C70BD3B1B33B
311
6DC5C31316D8A6923F142E26F6711A2258AF977DDF1F970ECC4F1F2B434B96D81BEB6E89BF3BBB3C7C8CC80505070723D6D7D7D3C8CA27CA164A26024FED94B12A86031867241DA53D929636DA600F050BC40CE48B8BA03D69224720DEE2ED2127390BDF5E6EA64527BBD4C4C63FA76BB801FEEC0E61218EC98A8A86CD8313
311
781617877E66692839B9468CF4DB8E50A73986E558E309C0D6F676F921BE02F1185454DC75B111572FF9D27D85EA14C05AD7271225B391C4275659CA4A43759D0BA44639BE4C30A84DB7F67A41399FB95CBF923B1B1672ABC807C1590557FB18D811983FA97F5E609516D62281D38B1281F68FC75528C35E4CD7DF0F7DBB5E
311
5DD69C414EBEA2F4A5B241B996BA77AE6C772E367408C633EA3E438B68563EA8BE7667F3A4C4FDEEA52ABD78A2820F443B7914A15F180018D231E64519C56A12F6CA7C8DAE18F06F6B769DBF92329EF6A5D18FBCE600F36BD8E8198DE5CDAA96181F3A756EBA5501CEE58F497EA4F418A2B82565B9BCC611713C0B708CCA1F
311
398B78C5F7D03B3437CC18F13061F55C7BEDADD5ACB1DB0E36D3CE47FF6EA1A563A57E9649EA5D14D1A50EAA457463381C073777EF1600607BAF6428A7DDC079D47A204EF1E1F1F0589FB054D45E02CE623B3823C317C601E589E22B1E88B448524B86A82828E32345EC18AE17214B42F8C41C6D428016D9BA31DDCB475725
311
61E5A402E5BA4FCE55F78AF7268524AA04130F3A20BA5D1E9F9948EA48FC8F5314FDB35E21898198060034ACE5E3E2BBCA34092518F275190AF65F45867FF0900AA4B81F25427414C372BF51DC29AA855C5428EE1EEDD6B849AD60F6E73475C2D2523F8A2772C840A478DED18A8C5C91B085F255DC4F54EA7AA8947354FD17
311
ECF8FB3B4A0DE7B483CAF3A1165EE05BBA413E5C1FEF3DE1D6B8F2F3F3251C17D9FCAB48A9AAF63AC773A0E413BBC46A9ADF84A566FC920E4D8C52C9769EE3301CADEEEDD92B312E02E2A7E35B7F1E7D203FE5A7D75578B06E99D0E46FFADB8FDA17ED8880390DA29094202D6F645F76F6F96409CDA05495A96E84B04A00D1
311
A6C6C81D7F3DE9376E828CCF144EE50E364ACCE7237EA0BFB5607ED1AC3CFE73794E5B61739D14DF1743441B1AC98F00ECEDE9E7301FA29755FBEFA68C91EF2B314CF510537EF1ABFC9A762496280B546F5EDAAF8A5B387D469FC9A878A92828C88608453ACEC6094DCA54111E7AD5B2663DFE2DD151B7F123B9F4FEF8EE36
311
AB125FD7AD52A59B1B765B3E3F73E3F73DEA93875004D2AFFE3CDE9493B87A9904DD052028949041A91DC0E1BA47BA714343FD5B25E0A6A09503AFC17C790058A836A324FE31D7893512E28230332F153181C1E018E1124EBE1BA262AA428A518237D1EA7275E48C5C561BD19ED6912EDD8367DA0F31E40EEAE9683DA92575
311
25AEA7B632B97119E17145A90231768A4F3B9120FF32E8319B015E3CBE26F1A754177D8185345817C096B0CE443A955D13AC15E1FB5DEEA0239EC32A3C92241A237B0B02FFCB4F93CF2B02570C8D192E2F2A68CEEB42F12E6F8CEEFF46C251E22B4341C56FB08CCE550E7A9D6F4D6564B9EA52A83D5BF2C6E03FA19D2775E1
311
5A8A7ACF30A13C259EE7F5EF2AC3BA354F1500E1A07FC63FB4686E2F12EC69719F9ECF5FE3F35598DF2CE944008CE78F0911BA5BE5D0A34E0098FF038669C26030BA9B300303039852A8F6F496341737CA7E0D2E3AAA36DE0A70AA7D9CA0D54D9AD84B18A44C9E625475E1C97B93BEBB38DCE7D227E67A2D00F53143613635
311
5F243D1FC0D712C5765754FA22FCFFAE97919161F46D6E61ACB37D83777B385889770B50765B127768443A5C4D3A4E35A3151111F146B7CA116F918A049F1C272F2CD7976C69A0068773451659A97E0F4A08FE604C3FF6CE7385DB19F4D3ABC8A0D80DA8A42096AC377DB49382B36E270B6FA7570188B4B7D1DDDDA82ACA48
311
7CCA5D38BD3BD039ADBAFA4ACFF27809239B722081E2EB9F145320553D183F28471C388BC8814E5045676767AB58A8E72D1CED2CA731379515D2E533E4CF0B39DFC625F97AC4836831A4DE330E87A8126FA17EBE583D614E71E22A8DBF2825599743E0640037303E8E1B1E8EA4E1ABFA4F62907B5E4E0E5DCFDAB417C36C68
311
48A2B8D15F1E505434C0707E16B1CFC2A1C36A42BBF55734F8F4301DDC2A5110CEE8C0747F69519265012A2174BF4E955ECD4FDE095A3ABC70536B7AD0B9D7892F81287D667C108703C9B66A221E9A0929D030008F77FF6F5D2108EF5706FC87A3069B976F7C9FC3239D13D283CDEA83597461079FEEE049B0F392889898B7
311
D87D31F8D60ED7B56B91823A8E4EDDB36C6172ECEE42BD42B12CD67994FA0F0DFAE9389356F4CD4425A4B8AA55CBF7ECD585C6A2C2316791E43D5C06841ADBB226A87FD61515FFBB0167B74E56BD7F3E90A57A97FEDCBDF483A0D6699A8C0849CAEB4947FAA90D8E332D9DEBD9F4738C37DA0CAF9CF3DAA68BCB67C420459C
311
7A64498D6E848E5CADE92BB6901F607AA331104A67F7CD650EE169B1DAE94D2C31C2F993632259B6957E246EFE4C5481107B07118607700040E5812A2A2A38DA0076875258C753F60E0F2662C748EDD5F3F3686B8FC3BD6FE631ECCAA1E8B1C1E565AD117E54893E79F4672E32F9E46B2A183DFDCF3EECB4D4D077DBEA0DA2
311
54D256045109670050129E9B9B1A9E4A11344D61497A992778095151510C4BB7EF2009B63AA4360635312E4CF668B7E0D3D85A8688E2BD83B569439892ADB63461930D428E0DE42E4AC57CE48DA5CC1449530D8BD3D6A0F08DF20C8E8F570F2CFFFCEA286E30969B4654D498A58D9DA782E19FE3F002181838925592C4A1EF
311
0B332D88B61A92C644547BED490D3A42CFFAB70E36D961F694F6307F72FF15A1C79D5B1B5CEFD353D9E2B52566DEC8F8F09CB3E8359C0F68EBBB7898243E34E12A015B2685AB303C04D3A9E00671FF3DFF0A184E4A2ABEB2B666AF5B3A209C73D8EF29DCDB069C9F391EEE9DD0F74C7BCDE16F8F02E3B8816122BBEB506657
311
75B600549D8BB33A54A6BF940C028118BC6878C79958D6784F9DEAA6E26748386FFAF8D0D0101E2847B6563F5D8DC1D78F787BE00E2C941AE12148D4A81599FE8F68D4DA5CDED75530ADE138240300EE13B0FC13A1687FED6774662C05A2B7DFB186732F0D7A93545D8B0A6390AE5054D9CB582DA846D7A061B3358B45E2B5
311
2DDE63E114397EDB7E09233A579155D795BE76102CF277F4DF8B188C4F2879BEAE3C08347124BF9ED23B128259FE107D31E34A652F090B30B39E0D9AF917B76A2806135621A8A60681F16AF216514BBD02711585B5B1AE823F4B2D0369EA5B6BCB863072727FFC871CA6C9AB79A814D989057E9470A3D238BC87CBB4A0EA49
311
AFE2B86F22E499793CAA9047080450166BDC357524561E258C77CB697F1ABB32562CF87C3B7AA12F911EF19FB3E5C02222E887D08202A60A17151F5E053A86B437771088B4FEE14D652C43E8D939995D34545E12E2FF93D4E366EAD25F10CB7DED141563C3D0C447AF06078A91135FD4B9611583CB4BF3BD167F2399CEAB0E
311
0100F8FFC305F00F1711717173138B4B48C83022295DE657EFEDD97F238ECA80F528AFB4F8D67AD4E2594B9A3AA86D7487EFC313BA95745C186F0CDD84CC12DC9CB0424B42203D351FD9C0A3AF10CC7F388E0329279087386421F194F4A29464C1DEF7EF8BE515E4A199DCD5B909342598D8FE6A231F71336248D5CEC54544
311
55C7BE383B3BC7B260FED27F703FDC39A170F3827239102F59D4DEE7FEF82EAA1A5E4BA94DCC4CC44E7E2EDE20F24244E4454369D2E87C3F823F193FD4FD27E1C23984B01898D15ABC20711A8A558054951A6AE280096BA36CBA439603B7B0B4C45F248C14B2383B4B5CD8ECECE4FF859AD4A6CA2326D020EF090F4041D28D
311
B66E5256B56232CC52829DE8060BAE6BBF37D4B7469B822454FE93210A3E8D15E69FFCF01123222611C51C4FD0A041A0CFA2471CF6BE38D2B20FA4C3525B5B8B586759475CF80ADFE67A284AC24651E52B8E683D24C2622642F27E7C3C22783BCF63648BC398BD6CD0D9C97E7E7E3EACB6126DB7A6C1FD9F1031302EE67ED9
311
6F22B77C7CA0239BB324207559B105E4693EB26EC46182A92C9C0DBD24F29B31C5C5AC1F84300E0E17CEEAC15F5736FA4A98971E2F1423BFCD68D4BBD5F86E74B40A369F39507C88FCDB35D2DD8DEBEA4AF999E23CF2816D204200DF6E611781B9884C1AC8888B4DE397320472959434323A5A36B22A8E1F721A270DF3BD65
311
E4A31C11FF048AFB0D8B7B6881423793963A23CFCE935FC189ED36FAE35C46DA3574C979E4394BE52084F3081837BE033396D2EBD80F1F691B273F660D2B32FA27A33B1DE4ADA5F0FA4651511102DFA410DDA86E065272CA314D5249DF91B06BB92807B28EFD54F08F7B525252782CD276DD02E6B0319B13DF87B1F6361AD6
311
B28FC0D711CF445429B9E5A433CD493051C49A9E03DDB1B147D880253514A5DED88009018620EE229101C041950E2D8AA8E1F5F5438E0C0C0C60EEDEE9E3E0C051948C69F84BB7B2A48A1F3C8EB9E6864687F4F4F6F6E2FA87608ADAF9C5E117B7C1A737E710769DA1D15ECE6A84502AA855398712D5FB51BE92E4EF824969
311
CE18278798AC303C2C7980DD2500ADF8FB1E6D6C2FAAFF9987178923334A244758BAA01A9A1B70FA5097D01E1CC2A58DAD0EC94CE6430AA9B0C10D75E3C6BAC670EFBADEE1607739CE0FC18A2587E3EC3058562014C64219C69BC269082D5C2F4A659278D585755912176D78A1B641719C2A394CED495A1AC5D583FD2F5EDD
311
93308EA7EAE8A6DD396598BDBD3D4CFED62D18A5BDFDE0DD5C80D1A89BA62697B131AE7CE9A6594138582F1B37D68F1749AC7CB67A70695D48A4A056AC1FBD4E82358CEAE38F54B95A9016F9000F9879C0D9D131768635CA798895F27D6F1614F11F2838A83611AA51C9A3DDB539D42979C29F10465655C17BEC3E2760B80D
311
CBF609198C7B171A531905F3EC218D696025975E986C6B4C666666787271F202805577DD5A3EF0CAFAF91B62DC4B2DB4217A7606282F31D8DDBC290593BAA93EA6353AFA9939B877978481E15CFC9F2755CDC00C538F63A4BA3E80AE009B73CA0185687D339A507D165B74290D6EE46D5C58148F020C3668ABE9EF2F754917
311
0DC80DB41FFC1D678FF19AEB10C7133832B104B80F691B3138F97A92D26E551F1F110400D45AC71A9B9AC41A1A1B1DAEED0B0810638EFFB511D46B121C6FEA0F38CD00E03CFFEB9713FE1F9C263E4DDEC160D0497FA9A132BA608584057FB15380825DE6C7FC3C667EE947D488A09898D8E939C4953BF4EC9836344D2CC6B2
311
971B2A21A572B06096F4982D2CC7232D46E8EA69DC83722E267754D777F97F96D5DA74E1E75178084D0E70F12AD33E5F71EF2AFA599B2BEBF60A5BE475F444F240CBFE8143C334E7ED9150FEEFEF7EB020C4DBED388DD1D6A167A76F3CBF119B578AE8CFA7736ACAFA4440A1C47185638A0D2F3EB5BDDEFDA958FB13CE4AA4
311
923D5BF840392D45544329525749734866684BF7F8D9D54D892E19BCA9F829A0F8BFCBEEA6CFDFC61D74EA1A645ED7A1FF241739F15694BD835B66FEC5677E40FE69BD3F91AE402F036537218A401CB0828604AD189E575015C6F3F6BBC8AC79CF6C70653847254B31551EFCBEB5978B9DB85D58D0FA41A9DFE9C624834AA0
311
4949D24B5AE6D299E072D152D12097920F14AA92C31C3B97E28B6C2E6E9C23D63043ECBBC0A60FDF5BD0C33C127EA8A3308B8B6AFFEB28B4455BF6E7AF4FC6222728357EB8E46E85053E6A8843AB23295BF838ABDA94658FEF3F832F147046B4ACD6F7D48E8FCC9618582961C898D1C7A253C91BFECBDA6BA18A1FCF70755D
311
CCEE2222F41B76D23CA98D0CB3D95F0CF66D57FFF65E2A90F5DF40FC3187621E981BD0BC1D992787212688976B94A8F0C6EF646624B570B78E068826F87CE27041A95C9A4871FF65CC17FCB1639629AD6A9517000D63AC231F3D741CB8430777E7ECF80CE7A3F73C0F162F7E56AA71F4DA80A33CD6ACEE78E2C11FAC03DAFC
311
E929B106F8F6B3ED2DC71FF994BD9CEF4E9A94896EF1B6E2B7B4978168BCF0847A3D2A4F1B0500B926E634B174548E9FBAD27153FB5FC36799B1E6C7C38A94E1F9E996796D7B485E635D5287A2AE76FBD11A341DB3F8F810385BB7296391973DC6C37C452A9305AEBBE0CDB6C566DB59FE60C8E94B1FD090354BF51439FFD1
311
B48D725228FFA88C84F686F547107A7A235665A4593B7C34D748C1AC8D56DD5DA861EEFBADDECBBD65117E65851F90351AEB65F0EFCFF4BCFEF24CB7A5879699FAC437A7AF9099186CF006BB923A59E37D7A36A29FD8D2CBB914A5E9D0A8FD212FBF796AE9A67958FF1D5D8B85F78F96219D4714EB919929241B6C018AAE0C
311
02069F8D919961EC5DDFBFB7573E3AC8E08BFB7C8534BE6DE045B3CD63DBD71F7638BA2309CAE398EA3A7D8F98BBBC7AEB367EFA5CFA27A9F8F2F52FE878058E6209C026453F8E7E8A237DFC389E9590F6059B397CFD65183BBF936E86896612A5B5FEE49DAC8455D026218AFEBEC12B3523A45B57B82C9C97E02ACFA1184D
311
B18E48CF615DBF39C3CC6F0B4AE6BBEEA2E39D944E290302FA3DE33FA7E40296E2EF7BF1CD855BBECFAD0FD622BEE9746FC4FDFDE545AE6E3BC234CADF83A0FB76DFB145BF3828AE3436368AC24989454F8FF70A177672C711CAA1A76107218CF948CA01F873520E7A2B118EBB161ABAD432932029628B6761590C98AB590C
311
8C8C79798CE9F715BA696E839E9131A4BB68BE923F1747FBFF165331FFDD4D05997ACD168F12CA75348DAC04C7F509FE83898A8B421181AF492861CE81E4A2DD0A30850CFA95E05F097FF70F9E777310D584A75BA7018922E271DAB1D785671157685B7D383D3E074DDB4F1E44EF04B07BAAC75A062077C54B9752C738C9D8
311
04D402E02851F3F89605AF189738C18C021D2139EAF72513824E10DDD3047BACC8521ED7E98B257D1166903B1B08FA6F918FD7E162913FEC7D0EF4787E29C35FBA8C6E2C9C20E9AB30AE42CA2A01A090E7D010C1B5BF9CEE2A304BF3A987FB40D836979B79E18D70F257DA61E808472DD85B82761825779D6B90CAEB0F2336
311
0C6F80A7D7D77545E95B3DFF0CF96A827F9B5BCECD2C9698718417EF80FEEDEE938AFF55859D0D540B7FE09435583A6F04874A0C7E8CF234DF4879722000167F5872CEC6BF3EF7E5A8CC8121E6A359227C8A29C95212F9F735BC72A887D56B8F309FC525BFB4FD767AAEC4AEFF249CFBBD2DE1AB9969A6155C7D8DABC307E4
311
7324C1F916C7BCFF40ABA5644E9FFB9238D19ADADA49D9610F01ABBA57E4DFCBDCCBB2B93C8953206C91DE01B0E2651A6D6C31721915B31F7B7CBCE55466F6D70402788FA91D73BE4ADCBA99A35F17D6B83383704917D6833F0FA3CD45C926ADB8BC17999A4A0AFBCE2541F7B8CF4C2F5FBA611B3E626D64407CB32C122DFF
311
4EF8674D6EDBB86C8F7C6A16D50FA685E2CCA34F8F7D1D8265BB0042E9D7F1F666F7BE5FAA5184DF58E12122A42EF02F461B3F369AC746F96528AD208512AB56844CF75B97F352DF7995024FB02855385854F3798670D01CAC771AC3E1889EC25F61A20C1F8CAB46898817F9C47E2CDA1F286BF2F358298709FE567C91133E
311
2638C8B53975E753EA8BFD3578B5F7186B7BF084EBA3F77BAC3132A5779902EC22AF2D2E79F42D324E083386DAEE9810D1B44A5DAA54513C7A71E52A4AB9257D975B621308FE4D2141CC3DCFE946C154A3C1DFCCA7629EC69ACFA831634ADDA93C0388D2A9A2DDAFCF957C6995BCE7FBB6DC4EBAE79E63EB08E9A25F52F670
311
76F7093CA545CA3053B5BF576DEAD4E0017143C5F759F32B2D6F145B52B67B48909B7C7FCA6586EE385A2189C16932CB6DDFD9152AE317C430492A578ED27B72D85D40C7C93C097939E1B50F4D67F05334FE9DC362C30B7FF561B95259138ECFD9274C8D695C31B14D4EAA9F3D7FA8DDF652F8C5DEFA23284C799B7D94416D
311
EE81E05A866302DC70192A5368EA65E1CED8BF107A1E2D3119A71E85DC1A7B0C1E93274CE04DD0F2ABC8AC7C987FDB002B6F81757B43502EF7A0D92E416494FAEEA4C9C090CD9557AA4D532F4996A272B94355C5A0E4974EEA9627476F30809B94D8D8D860062E02204643BEC7D0438AF800FC7E2B26955D595421E83C69E1
311
A07E0E3122285835F014AD538188CF9737CE76D464A353FA55A001AB2526B84E985083693BC76FE211CA1D000679C889E3C009832C87E1AC2EDD05C302557422DF0800E316FCAC86978A371F025A6C7DAA9F333E7BD160403A1A06EA75AA9888FF01504B03041400060808007B42744728BB58AF800100009E0500003D0000
311
0046394132373444362D433738442D344536352D423834342D3330363442363946333830432F536368656D61732F436F6D6D6F6E536368656D612E786D6CBD544D4FC23018BEFB2B96DE15493C78601010A34B880709DEDFB52FD0D8B54BD70DF6EFED3AC0B12E6442E2716BFB3CEFF3D18E26FB440405EA8C2B1992E1C323
311
095052C5B8DC842437EBFB673219DF8DA659866649B798C078B48AE6410122242F2A4994AC7F93815DF85C049C8564CA0A901499DD886B2EB9B1E02448F358701A9235880C49A0119892A20C89D1B9FD768815CAD268CB5E0355B40B1E47F3E37A2020464BED06AA57CE8FCC20C3C3446D46761A2632A8C1283D07031EFF2A
311
E7CCB1BFEEE916E406DFAC8E36FFD99A9D60A6944090EEDC3B670C7DC13DE86B6B2C5C240D6E503BB85ACD579D513F1B9F9A69DC9CC22AFA80C426D40AF0B21EA168559156B6276F0F726A6BFF04DCD513A87A62CAD41FB24FCB2858B3952E3D852084DA25B9303C15687973CC8E8AAE11DF2836C38C6A9E765E8C1BA1BFB1
311
DC29CDFE518C8B5A7655A4ED7E77291ABEB80DBD82EC866ADE1B8D05AF9E35CF09D7A061F38A986D9EC412B8F0F65E5D81534D9B231D1E5A8FE577A241F3A5FD01504B03041400060808007B4274472CCEBD668A040000E01200003E00000046394132373444362D433738442D344536352D423834342D3330363442363946
311
333830432F536368656D61732F47656E65726963536368656D612E786D6CD5586D6FDB380CFE7EBF42F0F7A649B70E1B90744856B4970F450FCD7A5F05459613EDE4174872DADCAF3F522F8ED3B88D2F1D06AC4050DBA2493EE4438AF2F8EB73AEC8466823CB62928C06C384888297A92C5693A4B6D9D9E7E4EBD51FE3A931
311
C22EF85AE4EC6AFC38BF261BA626C9AD288496DC3F4FCEAFC63366845F7A10452AF41DB320C0D44EC26EAB20918735565582695670811A6A49643A49A6E9069FA4604A64B29016DC4B48552F95E4932463CA888468C1D2B250DB4962750DF7CE273069CE8363F1FF4EDB00E0A21999574AE4A2B00C353B93F3BD4777B8A61E
311
D8F604ABFEDD79CE56A2B7BDFBDBC50996E0ADDE16FED26223C5D30956C29BDF4A55EA686E5E58B112DA45CE67F76F4FA27EFA3FB672FD7372FC388FAECDCA5209E693CAD167BADCD272F943701B3812F8A3D852008B1D2E32DB927B2F833C6EA95879925356D254582695095A3CE982924720BE5774A3CB9CDCDB350427D2
311
DF20DA1B5532EBE2D5D6288D75D4F7E4FD9890A0EF8E3D93EBB8F8BA4758158EF6FB90A6F9520281C93DE7AAC6D24607DA296BB96018123F821A7D6A5C5884050C475DA4865442732C8B95684A50165CBB3A32F25F783A4A480ED59AD7F924B968AEA50131F46303223E6A397B0E52976030DC1DCA81D7E7C1EDEEA42C19FF
311
27635C505E2BD5198A599020DF50A2330FCB3AAF28CB0124108429553EF1B228802E2265D8F7CC2401042B155BCC7070F1E5C55F13B4A9577362CCCE46C32174E010C3C378C44841A4BDA00FE3A12006CE11EE6AEC59894D3526DDE1CD59D503ECC324017F8061B7F162162FA62EDD81AE3308617770796DCBDAD2B2625C5A
311
E8A63DE20B2C8AA5E95E76E5730823955956E33E705425A2187C185D36489A1B44D3DCEC2172F6BA2105C3546287A7194B2331768EBBE64F6E70A9930ABE0ADEA89E9E2C38523B810287AD67A54A039C1606EAFE68F8304610BB9093DBDDABC0B2AE4E290DCDA15376D7E39F72B556F0B32EAB5D3D498B4C41ABADEC3A1434
311
C422D87E8025A84BDCB2B1417ED750FAE4DA8976863974C577C7F902D3F156AD354DEA3540DE6BEAE2BEA52F7A2EB4CA43802ECE5BF2CE2EDC9347179FFB023CE412E60BE16DA0BE29B374988A553F561DC04615DD35F7D2C8979F60E5955CE93DF29DED8AFA1EE6642D53418086C03C47C377910F75F7E8F5EF665F70B60F
311
FB22AEDF897D119E8423C773E819A3C1E55E550599EE6EDCA34D0C86FD72057DF2CD46F16A470682471C164E4346D5306BF12D7D12D82CFF673D41636C347443FEB51B50D72EA171A8E4A58623A4A16E0FA2B8B10A0D23268D87C33896EE8FB73305A74BF224EDBADFA0BD674AB354D63DB7BD5D83426761C077DE76772823
311
5446A552754EB93B755891C3C4CC6CADE37CF0E912A7BB38DBA010F9DE1282EDF470CA69A9CDA482E334C4A6EA4107987980B17E72F31730EBF88BBD39E7C629F56797A3C0009C2C5AE7951D9A05A02773440F02EEB4DE396A3B6A570C72CCFBCD823B0B8ED3F1D5CEDDFED772FA70236C83FB7D86C385D570B87107535572
311
A60A96035F8F7C6A7192F13007246BBE0521855E6AC46F3E27689CEE7D186A6FD679D98CDCAD13333E04EBE7ED6F55FF01504B03041400060808007B4274476180134D5F0100006B0300004500000046394132373444362D433738442D344536352D423834342D3330363442363946333830432F536368656D61732F52656E
311
6465724D6174657269616C536368656D612E786D6CA5934D6FC2300C86EFFB1551EEE343DBA41D1A103009551ADAD40EAE28A4A68D9426284961FCFBE5A340113B2071746D3F765EBF4DC6BFB5407BD0862B49F0B037C0082453059725C18DDD3EBFE3F1E829991803366715D474942CD30FB4A782E00C64017A412D684E45
311
4CE3FE28995203B162A6EA5AC94B66997D225E109CD63B0135484BAD1B3C07E9080CA35DB3119C11BCA5C200461A68A1A438126C75E3E230D40FF81FB3F03C91D1E3A3A0AF79FE28E25BC39EC3E17E4C2A2D94A0833A51AF55BCCA7D88572FCBAC529C4140B020FC3AAFA886621DCED7EAD7664CC86024E806DC297DA1BB39
311
3E4156543457A4537DB8817349A70F8ACBF09B3EEE2CB2F33E91B65D60786E4E3B39B77E3FEEEF5650424525DA657FB8B46BE6BF064646F0A0F7327C0BC1BC1B4CBBC1C419FA3CCB23500007872A2580CAAE5461865565294E4EDB4617B62FF579DF9A5B2F54E834076A597573A020912FED777F9B3F504B03041400060808
311
007B427447A4D0DE4B51000000570000004700000046394132373444362D433738442D344536352D423834342D3330363442363946333830432F4173736574446174612F41737365745461626C654F66436F6E74656E74732E62696E536160607035323530333674D4B5307233D535B13032D37532B2B4D475343573713430
311
74723672761602AACB4D2C492DCA4CCC492C28484D2C4ACC4B4E050A82012F90744FCD03CA26072767A4E6260200504B03041400060808007B427447F865834058000000680000004500000046394132373444362D433738442D344536352D423834342D3330363442363946333830432F4173736574446174612F53747265
311
616D56657273696F6E5461626C652E696E66558CBD0A80300C06F73E4B117FB66E451741D041DC5BF98480A492E4FDD18EAEC7DD4555D89EF28DF51A0B1BD8340C4DE7DD848B988C0ACF0649566493F2408C508DDEBB99D5129FF8F1AF8CF5B9503E20FAE5A16B5AF702504B03041400060808007B427447464EF04A370100
311
00A20400003600000046394132373444362D433738442D344536352D423834342D3330363442363946333830432F4173736574446174612F636E782E786D6CCD94314FC3301085FF4A648931761251A9548E2B044B2790A818D8AECEA55875ECC8BE20F8F7D86D0650115387AEA7EFEE9E9FFC4EAE3F075B7C6088C6BB96D5
311
BC62053AED3BE3F62D9BA82F97AC582B19BCA71F182B1C0CD8B25C664AEE839FC6B9D4610F93CD556BDC612EDEC788B4859DC5A7FEC13B42479115DA428C2D8BFA1D07E03091EF301E780704BCE601A39F82C63489CC80F3241D10083BA69AAA5E94755D36D5B65AAEEABBD5E2F64D8A4C2AB9F3DECEBC49CB821F6F9A4A9F
311
F6325549910125A760662ABF86A9BF54F29D71522452C94821B93277D0D7983A601CADD140C93CE1352195094218A438C14A8AECC22F2F1EB137CEE4964D9206E4C3731288810C5EA127FFA9BDBC371B17099CC66B76E45CE3E57D7839FEA2D7532C8FB9B9BEB49C6BE4C6F517C88A389E93149D7C5DD437504B0304140006
311
0808007B4274473F5CFA98E6000000600100006700000046394132373444362D433738442D344536352D423834342D3330363442363946333830432F5265736F75726365732F45323530363331412D383246352D343832362D423239392D4135364441303142433243432F7468756D626E61696C2F302F636E782E786D6C4D
311
90C16EC4200C447F2542EA3101A2AEB45D11F6277AEAA5A2C49BA2058CC054EDDF175A0E7B1A6BFC6479465DBF839FBE201787716372116C82687177F1D858A5DB7C66D355AB8C480F189BA209B0B16E33AD8E8C350D6B879BA9BEBBDEC5FB300F88909D7D4FF16093F5A6948D15FB09C12CA612EE50EECB6EC82C72C950B0
311
660BED00B900E380CD600876A657214FB394F32A5EC5F9225F2EA7E737C53BA9D507A21FBC8B0419D3D32A2CB631B67F84E21DD0AA6637A81E82E987E7146F4BAD0AE5967F40F4931A6452F2CE1A6A3571B4043437084C50FC1FD68AF7BC4DFECA68DABBD1BF504B03041400060808007B427447A233C2345D000000800000
311
006500000046394132373444362D433738442D344536352D423834342D3330363442363946333830432F5265736F75726365732F45323530363331412D383246352D343832362D423239392D4135364441303142433243432F7468756D626E61696C2F636E782E786D6C4D8B490E80201004BF42E6EE76F3C0F216234B8830
311
63108CCF170C074F95AE5473F5C4C06E932E4F28601967600677D21E9D8092EDB002539227A2FCCB80E1168D80A6417297A89C5D6963B7129A0D1E8F2EE73AA7B62BBEB8B27DE50B504B03041400060808007B427447BE89762363000000880000005B00000046394132373444362D433738442D344536352D423834342D33
311
30363442363946333830432F5265736F75726365732F45323530363331412D383246352D343832362D423239392D4135364441303142433243432F636E782E786D6C4DCC3B0E80201004D0AB90EDFD75167CCE820A4A845D83603CBE602CAC26799919AEEEE0D965E2E908050C6D0FCCE04C8BC355404EB6198129C92351FA
311
D580A10E464065907C8D948F8F166375F655BDC3FDC3B4E530A176BE7057BDC43B2A593FE403504B03041400060808007B4274474EF0D90B7E000000A30000003600000046394132373444362D433738442D344536352D423834342D3330363442363946333830432F5265736F75726365732F636E782E786D6C4D8CD10AC2
311
2018465F45FE7B4B2DC5C17438ABF718CD8D91D3B0193D7E1ABBE8EA83C3774EDB7D568FDE2EBD961814D00301E4C23D8E4B9815E46DC21250A7DB14E3F677031486D529A818743BA7989F3B1ADD34645FA95FC2638757C68938518325BB717C964CE09E350D365C5C0CA1BD65D616E3589532BF5ED99AD75F504B03041400
311
060808007B427447506AA9C50C010000550300003400000046394132373444362D433738442D344536352D423834342D3330363442363946333830432F536368656D61732F636E782E786D6CCD93314FC3301085FF4A648931761251A9548E3B3030B100139BB1AFC5AAE38BCE36827F8F1D32B4121B0CDDECA74FA7F79E7D
311
72FF39F9E603283A0C23EB79C71A0806AD0BC791E57468B7ACD92B4988E90C634DD0138CACCA4CC923619E57C9C241675F55EFC26915EF719A303C9B7798346B8CD7318E2C2E57AE73420BF1C4AD4E9AF79C2062260365427213AC130C814E60991ABA7ED3F67D3B742FDD76D7DFED36B7AF525452C93744BFF22E24209C6F
311
86CE60398662A893A2024A66722B55533075EE8E973EA42884923151696125D3D75C483DCFDE199D4A5962017F1825450D7B11F901029033D79AF9C2DEBF857E8260811ECB4B91D3FE5AB3FFE6F26F15886503CA37A80BA1BE01504B03041400060808007B427447E3603EBE7A000000C20000002C00000046394132373444
311
362D433738442D344536352D423834342D3330363442363946333830432F636E782E786D6C6DCD410EC2201085E1AB90D9DBEACE05D09878023D01A1D34A8419C380F1F82DA68B9AB8FDFEC93C3D7C52546FCC12980C9CBA232824CF63A0D9402DD3E10C6AB03A3397DD192872090D3406ABE7CCF5B5D18893ABB1690CF4DC
311
F02282E5EA8A5BB96FFE536F285CB347F95BEFFE81C9ED5AFF9D5B1FB575BB00504B03041400060808007B4274477D1F3D847F000000A300000007000000636E782E786D6C4D8CDF0E82201C465F85FDEE294A42DC00E79F7C0F97E858080DA5F5F841F3A2AB6F3BFBCE11F567B5E8ADC366BC9370391140DA3DFC64DC2221
311
EE33E6806A2582F7FBDF0D901B572D21635062093EBE0E34E9798C36536BDCF38043D55C4BDA33DC95BCC7F4CE6EB8E594E28230DAB26A2838E99271CE4A9A5F2F6DCEAB2F504B03041400060808007B427447CA1DF9C9A900000073010000130000005B436F6E74656E745F54797065735D2E786D6CA590410EC2300C04BF
311
12E5DEBA70400835E500FC800F84E0B411AD13252E2ABF27A55740421CEDDDD9B55CEFA7A117778CC979527255565220197F75D42A39B22DB652EC9BFAFC089844F65252B2630E3B80643A1C742A7D40CA8AF571D09CC7D842D0E6A65B8475556DC07862242E78CE904D7D44ABC79EC569CAEBA537E3521C16DF5CA5A40EA1
311
7746733E0B6615DE7217475F386F18B9481C510F1F021CD9FF027EA0E1F5C4E609504B03041400060808007B4274473DEE336E64000000790000001B0000006175746F6465736B2D64657369676E2D7061636B6167652E786D6C35CBC10E83200C00D05F21DCA56CA76D41FC96062B120735B69A7DBE268BB7777961F8D5AF
311
396893C2ADB70FE7ADA196782C2DF776D7A97B5933C430F15651E5469C55D70F80A4992A3ADC954792C525AE70A1E4D6AD9816CC044FEFDF01FE3FDE907802504B03041400060808007B4274473BDF76DEF9000000960100003700000046394132373444362D433738442D344536352D423834342D33303634423639463338
311
30432F4173736574446174612F636F72652E786D6C8550CB6E833010FC15B47783CD4390C8388212BEA0A7DE2C70889560233FAA7E7EED40A5F6D4D3AE66676677875EBED667F2298C955AB540520C8950939EA55A5AF0EE861A482E8C1AADDD2F1A248AAFA2850803A38BD17E3BA0492B275444959EC501726B8583647A86
311
A6053BDDC5CA53EE5D60D847BAF1E9C117919274E731EABD9C0FA99C839BBC4961800DF5707D1BF30A5DC70EA3F2841BD4F5A440458DFB7E3C957D8D6B9A4531A34EAE3FDB2723B81333B01C930A118272FC8E9B33399DABF2836691C9A87526FC7C2C8DDF01EBE2D503779C66FBF48FABDFE6FF5DBD54AEC80FD75D618191
311
70E46BC06816530AE51561A83151F60D504B03041400060808007B4274472DE9C3D2F40000008E0100006800000046394132373444362D433738442D344536352D423834342D3330363442363946333830432F5265736F75726365732F45323530363331412D383246352D343832362D423239392D41353644413031424332
311
43432F7468756D626E61696C2F302F636F72652E786D6C8550CB6E833010FC15B47783CD4390C8380A4DF8829E7AB38C43AC041BF951F5F36B072AB5A79E76353B33BB3BF4F4B53CB34F699D32BA079263C8A41666527AEE21F81BEA203B316A8DF1BF689069BEC81E120C8CCED684758784D15EEA846A33C91DE4CE490F99
311
78C6A60727EE72E1390F3E32DC235FB978F059E624DF788C86A0A65DAAA6E8A66E4A5A6097F6727D1BCB065DC73346F50177E83C900A552D1E86F1500F2D6E6991C48C7AB5FC6C1756722F276025260D220495F81D7747723836F5072D129351E76DFC795F9ABE038669B1A17FDCC23AFDEF1694F655B9BB6D0A078CC4E35E
311
03468B944E2CAFE8624D49B26F504B03041400060808007B4274475B1147DCFA000000960100006600000046394132373444362D433738442D344536352D423834342D3330363442363946333830432F5265736F75726365732F45323530363331412D383246352D343832362D423239392D4135364441303142433243432F
311
7468756D626E61696C2F636F72652E786D6C8550CB6E833010FC15B47783CD4390C8380A49F8829E7A73C12156C0467E54FDFCDA814AEDA9A75DCDCECCEE0E3D7D2D73F2298C955AB540520C8950831EA59A5AF0EE8E1A484E8C1AADDD2F1A248A2FA2850803A393D17EDDA1412B275444951EC50E726B8583649843D3821D
311
1E62E129F72E30EC335DF9F0E4934849BAF118F55E8EBB548EC14DDEA530C0AEF5F576E9F30ADDFA3346E50137E8DC91021535EEBAFE507635AE6916C58C3AB9FC6C1F8CE04E8CC0724C2A4408CAF11B6E8EE470ACCA779A4526A3D699F0F3BE347E07CC3DFCF2A1B89C69B64DFFB8FA75FCDFD54BE58A7C77DD1416180947
311
BE068C6631A5505E11861A1365DF504B03041400060808007B427447AF0AE2750E010000B10100005C00000046394132373444362D433738442D344536352D423834342D3330363442363946333830432F5265736F75726365732F45323530363331412D383246352D343832362D423239392D413536444130314243324343
311
2F636F72652E786D6C8590516F83201485FF8AB9EF28A0566D90466DFD057BDA1B51EA482B3402CB7EFEA075C9F6B4A74B0EE7F0710F3B7DADF7E4536E5619DD02493124524F66567A69C1BB2BAA213971B619E37ED920D162952D4419385B36E31FBB3419EDA48EAA36B3DC4561AD74904CF77068C14E1F7215A9F02E38EC
311
2D7D88E926169992F4E5E3CC7B35EF513587D7D455C90DF8B93A5F869196E8327618150DAE51D7931CE515EEFBB129FA0A572C8B61CE9C5A7FE8D326859333708A4989084114BFE1FA489A6359BCB32C3A39B36E0B3BEFD0B81DF00B2DF121271DAAE958A2A2A607D4D3A6415D79387798F4031D0696BD827F80FE31FF0FF4
311
4ABB9CEEC057C20227E1FFCF0BCEB2586018CF76C38C65F36F504B03041400060808007B427447AF831183FB000000960100003700000046394132373444362D433738442D344536352D423834342D3330363442363946333830432F5265736F75726365732F636F72652E786D6C8550CB6EC23010FC9568EF4EEC9028801C
311
2352C807543DF566390BB52076E447D5CFAF0DA9D49E7ADAD5ECCCECEEF0C3D77C2F3ED1796D4D0FACA450A05176D2E6DA430C17B285E220B8B336FCA24161E48C3D641804BF3A1B971552D60434193576C21594DE638042DD53D383571F38CB52C69018FE562E52DDE4154B563E7982C7A8A755AAA7E4A62F1A1D8853773A
311
BF8C754BCEE391926647B7E438B00DD9747418C65D3374B4E355160B1EF4FCB35D399401271035652D618CD4F48D6EF76CB76F9B775E65A6E03EB8F4F3BA347F07E215BD8D4EA1E7D573FAC7352ED3FFAE519BB0A957D7A7C28360E9C8C740F02AA794CA23C25473A2E21B504B03041400060808007B427447BDAA6525F800
311
0000940100003500000046394132373444362D433738442D344536352D423834342D3330363442363946333830432F536368656D61732F636F72652E786D6C8550CB6E833010FC15B47783CD4340641C8526FC407BEACD02875A0936F2A3EAE7D7062AB5A79E76353B33BB3BF4FCB53C934F61ACD4AA03926248841AF524D5
311
DC817777D4407266D468ED7ED120517C111D4418189D8DF6EB018D5A39A122AAF4240E905B2B1C24E333341DD8F1432C3CE5DE05867DA42B1F1F7C162949771EA3DECBE990CA29B8C9BB1406D8B5BEDE5E86BC42B7E18251D9E2065D7A52A0A2C67D3FB4655FE39A6651CCA893CBCFF6D108EEC4042CC7A44284A01CBFE1E6
311
44DA5355BED32C3219B5CE849F8FA5F13B60AFDB9D9666FBEC8FA75FA7FF3DBD54AEC80FCF5D61819170E23660348B1985B205186ACC937D03504B03041400060808007B42744725E2C1C402010000D80100002D00000046394132373444362D433738442D344536352D423834342D3330363442363946333830432F636F72
311
652E786D6C9591C172832010865FC5D93B0A8A463348A6499A27E8A9372A1BCB248223D8E9E317AB9D496FED09E6E7FF76F977C5E173B8271F3879E36C0B2CA590A0ED9C36B66F610E575243729062722E3CD820B16AC0161619A4E827378F9BD4391BD02EAA751A3751798F0192EE1E2F2DF8EE1D0795AA394487BFA5A3EA
311
6EAAC794A5AB4F8A60861FB49B5005D42073CA4AC218C9E90BADF7ACD997FC55648B538AD9D850E45B331CDE50276E0C3152C498C8D6E7689B8DDE4C46C74F9AABC109E4A579CA77FC5C91D3AE3E13FE5C95E458734E0A5AF163D55C8A9A9E6291084BE1C31447B3155986F0577C057F459B47FDCF682BE1413E84CA96394B
311
917D2F219ECB4EE417504B03041400060808007B427447D5310D7508010000B201000008000000636F72652E786D6C8D50CB6EC32010FC15B4776CF04376224C1437F117F4D41B35C445B1C132386AFFBE10BB527BEB69D1CCECCE30ECF4398DE8A116A7AD698026049032BD95DA0C0DACFE866B4027CE166BFD2F19202326
311
D5408481B361B1EBBC43BD355E99881A2BD50E0AE79407D48FE1D180EB3FD42412B1FAA070F76416FD5D0C2AA1C9A6E3CCEBE967B55F94F04A02CF082D31A53823AFA43ED2C3B12CDE581A959CADAB96BB9596C15DDFB45A805FAACBF5A5CB4A7CEDCE04170752E3734B739C57A46DBB43D156A462695CE6CCF925FC793F12
311
727AE4C423FAB274A3387BB776DC05219444D68C5FC0094B23F127F43ACB7F84D6C6E7D97E70DB70C06908F42482716C308C67BD61C6B6F937504B010214001400060808007B42744780882D6D15010000A80100004F000000000000000000000000000000000046394132373444362D433738442D344536352D423834342D
311
3330363442363946333830432F4173736574446174612F446566696E6974696F6E4974657261746F7250726F706572746965732E62696E504B010214001400060808007B427447C691A648200100003002000045000000000000000000000000008201000046394132373444362D433738442D344536352D423834342D3330
311
363442363946333830432F4173736574446174612F496E7374616E636550726F706572746965732E62696E504B010214001400060808007B42744788E57597CD3F0000904100006B000000000000000000000000000503000046394132373444362D433738442D344536352D423834342D3330363442363946333830432F52
311
65736F75726365732F45323530363331412D383246352D343832362D423239392D4135364441303142433243432F7468756D626E61696C2F302F67656E657269635F706E67504B010214001400060808007B42744728BB58AF800100009E0500003D000000000000000000000000005B43000046394132373444362D433738
311
442D344536352D423834342D3330363442363946333830432F536368656D61732F436F6D6D6F6E536368656D612E786D6C504B010214001400060808007B4274472CCEBD668A040000E01200003E000000000000000000000000003645000046394132373444362D433738442D344536352D423834342D3330363442363946
311
333830432F536368656D61732F47656E65726963536368656D612E786D6C504B010214001400060808007B4274476180134D5F0100006B03000045000000000000000000000000001C4A000046394132373444362D433738442D344536352D423834342D3330363442363946333830432F536368656D61732F52656E646572
311
4D6174657269616C536368656D612E786D6C504B010214001400060808007B427447A4D0DE4B51000000570000004700000000000000000000000000DE4B000046394132373444362D433738442D344536352D423834342D3330363442363946333830432F4173736574446174612F41737365745461626C654F66436F6E74
311
656E74732E62696E504B010214001400060808007B427447F865834058000000680000004500000000000000000000000000944C000046394132373444362D433738442D344536352D423834342D3330363442363946333830432F4173736574446174612F53747265616D56657273696F6E5461626C652E696E66504B0102
311
14001400060808007B427447464EF04A37010000A204000036000000000000000000000000004F4D000046394132373444362D433738442D344536352D423834342D3330363442363946333830432F4173736574446174612F636E782E786D6C504B010214001400060808007B4274473F5CFA98E600000060010000670000
311
0000000000000000000000DA4E000046394132373444362D433738442D344536352D423834342D3330363442363946333830432F5265736F75726365732F45323530363331412D383246352D343832362D423239392D4135364441303142433243432F7468756D626E61696C2F302F636E782E786D6C504B01021400140006
311
0808007B427447A233C2345D0000008000000065000000000000000000000000004550000046394132373444362D433738442D344536352D423834342D3330363442363946333830432F5265736F75726365732F45323530363331412D383246352D343832362D423239392D4135364441303142433243432F7468756D626E
311
61696C2F636E782E786D6C504B010214001400060808007B427447BE89762363000000880000005B000000000000000000000000002551000046394132373444362D433738442D344536352D423834342D3330363442363946333830432F5265736F75726365732F45323530363331412D383246352D343832362D42323939
311
2D4135364441303142433243432F636E782E786D6C504B010214001400060808007B4274474EF0D90B7E000000A300000036000000000000000000000000000152000046394132373444362D433738442D344536352D423834342D3330363442363946333830432F5265736F75726365732F636E782E786D6C504B01021400
311
1400060808007B427447506AA9C50C010000550300003400000000000000000000000000D352000046394132373444362D433738442D344536352D423834342D3330363442363946333830432F536368656D61732F636E782E786D6C504B010214001400060808007B427447E3603EBE7A000000C20000002C000000000000
311
000000000000003154000046394132373444362D433738442D344536352D423834342D3330363442363946333830432F636E782E786D6C504B010214001400060808007B4274477D1F3D847F000000A30000000700000000000000000000000000F5540000636E782E786D6C504B010214001400060808007B427447CA1DF9
311
C9A9000000730100001300000000000000000000000000995500005B436F6E74656E745F54797065735D2E786D6C504B010214001400060808007B4274473DEE336E64000000790000001B00000000000000000000000000735600006175746F6465736B2D64657369676E2D7061636B6167652E786D6C504B010214001400
311
060808007B4274473BDF76DEF90000009601000037000000000000000000000000001057000046394132373444362D433738442D344536352D423834342D3330363442363946333830432F4173736574446174612F636F72652E786D6C504B010214001400060808007B4274472DE9C3D2F40000008E010000680000000000
311
00000000000000005E58000046394132373444362D433738442D344536352D423834342D3330363442363946333830432F5265736F75726365732F45323530363331412D383246352D343832362D423239392D4135364441303142433243432F7468756D626E61696C2F302F636F72652E786D6C504B010214001400060808
311
007B4274475B1147DCFA000000960100006600000000000000000000000000D859000046394132373444362D433738442D344536352D423834342D3330363442363946333830432F5265736F75726365732F45323530363331412D383246352D343832362D423239392D4135364441303142433243432F7468756D626E6169
311
6C2F636F72652E786D6C504B010214001400060808007B427447AF0AE2750E010000B10100005C00000000000000000000000000565B000046394132373444362D433738442D344536352D423834342D3330363442363946333830432F5265736F75726365732F45323530363331412D383246352D343832362D423239392D
311
4135364441303142433243432F636F72652E786D6C504B010214001400060808007B427447AF831183FB000000960100003700000000000000000000000000DE5C000046394132373444362D433738442D344536352D423834342D3330363442363946333830432F5265736F75726365732F636F72652E786D6C504B010214
311
001400060808007B427447BDAA6525F80000009401000035000000000000000000000000002E5E000046394132373444362D433738442D344536352D423834342D3330363442363946333830432F536368656D61732F636F72652E786D6C504B010214001400060808007B42744725E2C1C402010000D80100002D00000000
311
000000000000000000795F000046394132373444362D433738442D344536352D423834342D3330363442363946333830432F636F72652E786D6C504B010214001400060808007B427447D5310D7508010000B20100000800000000000000000000000000C6600000636F72652E786D6C504B0506000000001A001A00210B00
311
00F46100000000
310
504B03041400060808007B427447000000000000000000000000370000006662782F32433845313336382D383434392D343738312D384637452D3032453430384537323044452F617474726962757465732E62696E504B03041400060808007B427447000000000000000000000000350000006662782F3243384531333638
310
2D383434392D343738312D384637452D3032453430384537323044452F76657274696365732E62696E504B03041400060808007B427447F270F1330600000004000000360000006662782F32433845313336382D383434392D343738312D384637452D3032453430384537323044452F747269616E676C65732E62696E6366
310
60600000504B03041400060808007B42744788E57597CD3F000090410000420000006662782F32433845313336382D383434392D343738312D384637452D3032453430384537323044452F7265736F75726365732F322F305F67656E657269632E706E67355B773CD4FF1FBF73E71C0E67EF7576C9DEF3EC995D46C6A1EC50
310
46649CBDF79E192942562825CE965D8A868C2842C8DE9FDFD1F7E7F138F7078FCF6B3F5FCFD7EBFDFEC41B196891913091804020321D6D7513FC77D8C5070EC3FFEE51B21F068154CC75D455CC028A3EA68992803810109FDDE5D5CEC5521B28A1B422BF80741695D5B529DA1C2D058AD2388BDA9F476F7C2CADC939304173
310
DBF48A452BF8A700C0C70C3D121C1AA15A5270C22E2B9E28763651F7DA0D12CE11077B2ECD0D560B5E3DE2368B1E65C5E1C87384A4CC5F2D9FB8BE39E9B77C753783A37998F5CEF1B4FEE553463245C9712270880DF339E0B882A6BA713D865F6F384C842D440934EF264F4A304F8DE4EEFA1E2BF5E2D91F5ADD9613D6E31D
310
DB33ED31DB1D7916CAF091286EA3D31B9CFECB78BB0060245B943C4C040119FF780A74DD308BA9D028678674EB5504ECF284EE814DAED07440BAF649BE4B55DA2890F4D73E2D489A59EE54FDB0A85B59F2F52C4858A02705C4815A792B0C4A996A2023ECB195073E115E3E3647F64243A8338F2000BCB58DA5692C7E7C3D41
310
3F963FEDF3CF00FBB0F831A9D51360FECA43819F527B89FA260EB63C5DA676830AA3626A3693B23F1A17A0DFFCE3EE164E31B5365EDF0C89EF64D8E38AB0BA9A1117D7C3A0EC44F44F4023095E80BA610DE336D0F99593A88BFC5306E72DF98F7FD132ED95878DF2964EA7E43071359FD83B2BDF9C6B5BDF768F0F3C0FC351
310
199526F53D9460A34511F75D1B63E488178569472C91A94497807A3FD4A390C6558F26D416365C3656DE6E769DA9D8FC73774E1709812842DD8EF96AED1960F79D21B395CDDFE6F92CB4EB962A4668C76990E2EF29798C8941D67DA50F4A5F947872460F1F6FDB794E8A29FD7AC0C0D6E0714339CE258FB17AE8535221E346
310
4A10F29A0BE5EEECEFC5675926A89F49EB14E5711894F6586DB5754EB4D5DA9C6437EBA57DB97A24F8B8A8DB295FFD73266CF57E82694DF5166DDF93573AFE9C9C5EB05F8FEF8E89E0A8917B0B3724DB7BEBB53252581EFC3E38166BA131A3A5B42FE2AD00A769BBFA4458D2DE7822F8C4F63D0B8E21B285AE13325F3410A4
310
35C648C9D91FDEB109E73CEDA7BC796961AF79175E1A3CE4C5E8B0D009B0C9E29EFD98BC8E97554E3D8D838424E270F7685226E5AC268E021EDE3522D583E8F20C0BDE2959EF5BBFEEDAB32FE9A3ED0E39F211A86AA9DEBFC68182EDED132AB8BB794442D2D7EA9F4D8BFF52BC4D55BB165124EE90A42D101E67BBBB292FFB
310
4F66DE5BF2300E44546757DA7CEF8932BFC9F92A0707953491A55C5A5ACEDABD9FA1AEA01BAC3DC5A24E22E7C47213493996EFBC369D086ED9397C9BA6C7F9855C7BD5E15BFC8C53DB3D2A4C5901A57ACD2FBDF4D1676E95338B2C2BCE65FDA4C64F5FEFDC7D9CA5AA1FCF11E193F2FDABF0F4916BF13FB916A224380E6462
310
A9815F2300DC49CC4DF8D055CEF76462F4B7A7ACA7365C2707891370BC1D0AA6203C44CCAB47084FEC057F27FFCD57F89B8B9852459798A675C66BD7CE572CAF71FF7E6D7ECF7BF62CAB7B3F1107DCD04DC55A3F9961700286141C94A4F771FEB2BCDA2DDEE0CB0BAE402FF1DB0100F8E475DFFFC074DDB4498AB7D186A765
310
4DDB1CB680D703D47CEB4E72F8CB13D86A4AA68116E26387B93FD6738779B34FEDB8E517EDF2BAF28D9BE93A1D3A164320E07D42E514725C29515FF361754213EDE06B079A2E99EB1CA82A02019EADEEB87B9AF005BD04BBCECB14AACD6B24EFBE482194A97DD32400685FF1FEF1544D1B14EFB1E7F08E6D2CD2AF52DE757F
310
35F5E62332EE88EA26417AD5C3E0E319D68F25414E6D672BD4522B278C57D18F0113921C71D96527E091F00CEB15AE23D24667369BD3CEFA10C7549D930890BA4366F4EBC55F01F746109F98ABCDD5A3EE06619C6AD78AB33E48E4C9BD21BF7478B385EC05C4F8987E2C1BFA0A60EBEDAA0AE0B015C2720ECE180FB6F2DEFB
310
EB822D96338C9B63822183BBF52FB664A7AE57003AABCE512BF77E7E31BDA2E739AC4C131657DDFE5225E900FB56CC01CDE808FA4A9C9DA16AC679656BB64796283D89812B8F91136AE18EE5EBBAF47A73BE3C153EB5D4CD491B4BFB4FE690A4CF9ABA08C0D8AA64220C438C96EA6CA80B58FE5761E697B3A292EB9FBDA502
310
FA863E49FE694ADDFFF9D62C520BDD1A22014147A0903A05B9B729F54272EF83931FEEC057BFF8C8055C279EAC5C0011804828734024F6CFA319C9CC6867C727184465CD9BB7ED386AFFD96B294A85E3802FAE47244602D8273615952B98C4F23F7EAE4463D9D638EEE374A20959E0FE519C4CFB0FBFE5DD80C2AA3F9DB961
310
D1BDE57E67C9BB47B77FDD74EE3094F5DBBE3EBC1FBDB7393F5116263009E2EFE1AF9A221B2AE234C902BF70E9F280ED23E73908361565964333A3F01D0B006AF32FB21AA1316744B489D5A198E85299241735BE559675130955C902A8ED761FC0DBE337A9F91919AF5CE32AF902ADF9AB2615E00E8A94586BA1A90839B618
310
32FF1BFB76D2EFADE6DB1BA04CCAD3DA649E7E2A0219F592E22F2AD54847EEA8E42271011E9074F8F3DD9FBA6CDF88FFC9FC7E811AD1CA8F4557CE4AFC7BBEDCF0114A48689F20A584520C74DA8127124B767E2FB91A6B186246727BE63C9445BAE02088D58B8EFDC0F1072407CD9B89A13F6303B4A928F593AD489B58E686
310
9325790ADC406036C591729FE14021F94B7796BB11848D463536A092A26F077F94639F7CEEE2A724C66EC885F4A24F8B8A0AC321F8FD149BA529460FAA34E4663C02D41FDF80BCA222D42F0ABFF8490F4FA74C673807C2051D8E467B47B616072860069A9A303ABA9B319D58404461401B0A0F9BE5E1E151C14BC33B32ABE0
310
3DDE91708DFAEB15E7C0D593C86BB7D7EC17BE56E57975F077BFD5525F3A1A361D584A75E08CF29FC7B44B2B3085014F3A5A14517377C3F6B8F37E59514C3B12F8AACDEDDA4DFC49BE5710101534CD6FB6DE15B50F11A09472AABA727F0C49D9CB906B158030065F48EB3625E010CEC1D511D0053474B11E6A4F01C0D6EF1B
310
ED3A944FDEC70E0DDCDC756C86545910E0DAE3BE3AA9A404574C2995CD5CAF9549226BC94B4F4F0F5F9086F418F6B32346464610D8BC7391D3C3A3CCF04CFC1FB2A3A3170E369511868F14EEA4E5E438CC73DB1F3248AA94B6B2FF33B222FF3D1E7BF146CAD229770158063BCE4F5391964DF62F7E52A7BE0EEA829C9E13C4
310
C147D6F93FE59E111DAB5E4594D6F3CD1AD375EE039930EFE5AF2BB2D41C83C7DABD8C659BAFBE8FAB392CA634F3D15C1D945DB4588D2B0824A4EC928AAC565557CA2F0DAA588CA5BE30B3A8004F7BF005E96CBF891D7F18112A3619FDF530DC8AA64954258E1811789B5189B49B4EB53F5F89F7D37523894F3EB57B373763
310
C91E502F52CC99EB7BDDF933FC324C4FFC2561DFFA7339FAFDD0A4BFBE6D3A8FF9ED1FC49898139864602458968913181918F719CCF5A68B2EE9C1FF050E34E63107003B8120FA982C21B30A874E4F5E4B38D5A8290C4B8D9BE48A0BE31EA995BDC37AC6DE90BA17D259DEF53605D55922FEB1855D915B659FBEB350EE0DFB
310
2F9F766E1C84CC8964B75D08667445EAB966015F63A18A9E0A325C1B3DC628C0D3CB60F767FA93CC65F25458BD23C3B312716E5F40E5858AC06EBA9AB14F95DB99147B832069201541D09A0D856E12C629CF32683760EE855537D1901988D5EBC156676C7DD51D7207CF3267AF1D76C2AD867315E44618015313A98B19941C
310
696FED3461CAA9B5415F918556D7802EDACEFD6B2E45853A9735DFC9DBF7E440F9319F8B6805A973BCCDC76C069A9144E51F187EDCC12FC31B5DEAAF0A76137199B106EC84ADA6B6EE697D4E6A96E007417F4E880E8B1E89B4BCE9D81EF611E2ED8F0C1A6C25F620FAFAAB656A7C42D464880E8AFAB0E0FC8EA38CA9A8AEEA
310
EE3E4648BA4680270A89743CDD3E6C6CBF34B7B640EFA285ABC7EA0A1E28F3CC963D114A80123EE66D0AF7D5380EB41909B605AB4765B709B808590458157E69BA1378FEC4B48CAF6A730E3BE3C5EF2DD1A5EAF94B1DDE50CEB55DDFD7EE9A16747FA4B223359FB1FCC69E1194892BABB93A1D5C4E807AC0EA2E30180811E7
310
7A2291F6E7F7FAA5E0F60215BC6024E48DE436C511F0628B8CA189982D4D83CCA17D305A7E923C37941CFDFDCD93ACAF735EF5F0E61BBD3E6C41A59B242790D3A3BAC7064DCD89AA2E37214EC839820949D5CAA31E240D2948E48F690298974A96BA9A8432BC90F5071D6537C9666EA4564796B7AFFFA548077BEEA75F6308
310
3435074BA182F3699557397F71548383FDA8CA34D99B981E72835ECDA5DDDC151315173D05A21F651AAF8524E88209E2E7A737ED1045800CE3390050BCFB8BE588DF111617874C62575039CA588EEFDEFEFE319B739DE2EDC147092A262611E159650E787917885EF08F1F51B8F2D8A71D60B58B190FEF9541A1BE94BC19FE
310
A50784DA1419FE4B0FB51B8D36B5FF8E1286FD8AF42B91E59A5F1CC4D60174E764045FD8C57B18209B217F89A62252BD20BE0E63E12B8E8F029FE19E0E8D0870F58721A557082250D5424F7909369376E41666C0EE77CD87CB283F661D5FB6D0DA023CB67320A20DC7BE661E9E1BFE5463085C557DA1FF9BE835733766C3D1
310
39F2CF9E2208873AD0EB4814DE9E6BF2CAF81614D4D43906ED1C05A3265CABBFE192770FC2F64F940CB6B17B5F166F133C9AEEAD2641807C3E69515171DD74C4A85311513D6EC9530B3B601B6BA3EBFF3B5C3D2F7D69765141E345F75433953D013ADDF8F6AA7DC3F4A7563FE5C7D367937E2900D7EAD0F9FC9A4A1A9B5BDF
310
1FEF08532660C01C5D6DE22199AA774383E306DAB87E301ABB7D213887F9869D4942D0D71E94B27EDF216A318BD488D45DF84529EF575AF3C3938C0AAA0215B01994153E2054A0B894DA5C784980633AAD48576957CF4AEAEAFADC7C587368551C73DBE1E57C58AC713303A8BFC258BD04B51724459FF9E24C03A81E0E0679
310
CEB9B348C0DC998FEB9C6D6EFA77D247CC8F92D3848599ED89A23218D0636465AD1CEEB7DC140D7426F83491C4E8E8281C2FB35240918FFECE880CA2A42D70E8B20B34DF5221C7DB0CF90ECCB9C745B37A47E9B716FF7A97B7A252C1F3814DC7B1E1A7F72B8751D524EF7CAE45B0C73B3BE7D08ED39781B380DDFC9AA4A474
310
9C9493DB5BAD07A6EA6C092FBD0E85DB004DF06B8C9D3089C5320187E4CE1846158C7EA7DDAE8AD9AFFF21AA3A1026BB06A259845E8232DEE62811A4DA9CEAB3A4887320B76E2AE5615EAB7BDF738CBDD01F1E64064BC13D9EC53576751CA8CACD58B3CEB0E6CA585BD089B2A59B9FC101403387AADBDBE70586B93D64BF3A
310
D4453EF9C3B6A93817E8346991798601344F79A83C51F3D50F7BF2683A3605F51A72449489E0EE6169C749C60B1035651103AEE24D24E51A759C840DD3FC6504DA6FE107510E447B43461C79D22970B75DE5E1BD3007D1AFC619A4A4A69B5626AF5E9B8374E20677F77E2F8E73DF868E8BEC7EBA7B6A75EEF7205E1AB9486C
310
B642741D6E03FF13FCCEDB1C4AC129886268B01CDF4B124AF797CF784F3C6DEC97A17D4B558070A0F1C04DA4FF9BDBF34159AEFE958479824B3F58EBD1E19088A2AFDE501B6F2052368A3FD0E650A179EFAB1561E1D27527077136E652676C3670F42DCB3352F48F6BC86D2C3B0051727E41A0A4DC6CE2BE9D47F5CAA2935A
310
3C0539AF080665997194ABECD723B08129CC5B6B21D2E7D54CD4D12610E7E9FB8306771A89576C7A982002775ED44F3F744CF21EEBB27A631671D921938AAEE3EB0D19CD1E083727F607823E817BF599DCED5394E37EEBC2E88782E638920CA641EF74D4CDFCDEF06F4278ECB18E31E7E9876F2D783C8BF429C75395F57E98
310
C2B495A3DA077EB3AC3C158608B6B57FE3EA48484D9A480096FCEE0DE880950E7E5A5714131C5C41AAA29FD19AE81AC145FA1B9E85C7169A5AB837B213493DF7E9AA4B5FBF9CDEB36EBD21EF1181B7CF7366AB2A951D01E37AF4EB835D1BE8C117CFBE7625D2EBCDB0B20C5A4B45CED0BCDE3EE8DA9DA78C2E21DEAAFFD119
310
7E463C33CC6A80FB785669B856EFF7A8CCCA2841B5A5369173320B1170C368B2748D81062EA0296E5E2D95D7667A4A46D98A6FF475C76AAB0A8C8D45E226FAFC9FE0133EA9F60111F99CA81ACE03A1D14C89E8B0D69079C91464FA1D99E651D0EAF606F345C42A8A1AA9BA391031582B96D5B4176A77AADB01F12FD298A75D
310
EEBB2C82F0B8650E880722F8DDD90C56A7A058E5FDEF1AC93545BA27367C76F5D8F9690CB6F8DAE141EDD7971F0FB548A2AE435F224D6E5954CA155512F7332029D5A1230854B79F258EC5FFDB09F5F6343A8EB193229B7F7E79B3E48F8E183860B38C8269D1B53738FF1E0BACF6AADA6D4869E9DE708E79B5DADCC09B1BC7
310
6F649731CFAF59A83FD8BAE4C749D66FA87A3810D4D62FFE826FA400C0F325D2BC0F3CA35F5847B82A2ACC7961745C823E4D863D54460AF792CE6F79B5C7A33B25C3AEA6CDE15A919B6367D781E9D44F61BF828672594A3E1D9EDD6DF179A81F27EAC05B936575D73E05C209DDD2115CFB705DF9BBF3C911589B3640735E9E
310
618FC9C36A7326C82B2205E244C55D56FDB9D5DC93CE958D4BF8174D2B3DA54CB3C09F2C2A6DFF73D23B2197355761AD421EC581284A7EF8DE2CE3497C0C804D49B41DFD6A7360844E5BEFFB495CFCDB97A4595911CDBA623274CE852B5E278AF0BEB1770E9D37CD977B2766A7DED0E94B840E1E95E8C77DE5CB6354AF7871
310
427C28ADBEEF7BA0A28E19DE9ACD75F379FE373EAE6DDDAE3834692F9C2B03B4FCA8FCA9ABE8EEEBEBB725B88A7C90941E850682CA04061A7DF0CE82ED49BFAFFD42C309818FAE14755CAAE78B0F73243ECCCAD7DF58FCB9CDFAE7A4D3E6671A613639130D056C8383C8F4FCF4808C331E544DD26E4755D09EA05253B3049A
310
1E32587CC25D72E073E2CD96D04A71BBCB0038FEC3F53D254199C3CDC67CD66640269431860225392B2CB3ECD0B4498AAE78BA1994246AE1EE78F2EDFB79F6C6CB6B5E279C4D373FBC21CB2698C9ACBBEB6A4BB6B39E16AB0E421CCBFC7654D81ED86022F9BB522146F9F4772E2D0E4FA70120C95A85A417BF5078B232F475
310
4363EB1750B2AC2148EB46B1EA72AD9B4D23ADCBC589D70106C3EC2ABEEED84DFE28E718C6C83502C28E9FDD3B09DA0A6F6F7B72B706A31C9E2A331EE70DA56A083D2177BFD63C55B11D8D949FAFCF90B23A1E24B9B5018B9A17E99F2890EC302F330FE7936E2C23F0D237EC8916F5166AB84B62A21BB0B950146962D754F9
310
2CC2C8877BED8FC7B7B25726DD19545392570B3A2C66B58F027BEF412E552D12A588C4A3CC5C3193FCB3485EFFF700D0B9EEC077754A33DC1FB9E25AF814628F91DDFECB667D3F7690803F38D13F8AE39353523BB08FC6760144AFA2CE28236F65EDBB3D5F59A57D612B99E3D7E5F8A851666BF9B5A6658EFC96EEB37A378A
310
BB0EB3FDDF1303AF32C41BD1C8560745D7BD81066B0D6313359CF488563D3BA3F8E2185D1FAA3EBA1397C9D0E3DD232180A4DCADB6AF25DB3AC3CC26589C8239E66E81547BC7E2F328F9884764CA37EB5DBE390DFC03A5246B456A7C3684C4377D0EEF9A350680FA9A077E8B2957B489E09AB1AD41316944C2254B5984830F
310
691C93CAA767EECF976FA5647538830B5E63236A6F0365C1E0F3E327F24FE35EDDBD7360B0F7374837409F7A6311BECC12B7026D4FA1AE204FA3F5FE904B1F420C7A9044AE58E403E7C4848E7DA25DC9EDAC79DD756FAA26B9EA83ACE8A214A2612A22AFA19DAE7DBAC5F8CDE1292A485F98DAC731A29FE01A3966E96BCB9F
310
B5A4C8830E1B9AF0C54B87FBE221A097036E5D28D1F869F810C06A9BB0AC0612F69AEBAF893C6E7AD59460208BAB3A6B09CA4F6BDDAB8CF0D1F84B72487498395A70DCD754796E271099A567A55CF242BBED64696378BB6CF25EF0FCDB589F3A82F1116D010A9AB9FA4358809EE0C973A2B4229BAA876A70B03AB49CBA7FBE
310
71DB1832FFD32F9BF2C8E98075CACAFB36921235D0F552B6A67E94E094097A5D7DF681B40623DA535ADA7A9AD8E9A62407D7C9A5AE51D62A17A83A23728DE86BB56115804D3F2675F2C6B87541A0FC497BF0CA86420F558C9859EBE9FAD62747E323E3AADC03FDCDDFE7407B09DA90B44E3185723C5381EAEF589765E2F7A0
310
99BA46695BAD60CEF3491B8A171F5F56444F7CE9455312C3498C74173AEA0214EC029833B34B650CBB5A5508D5091665309642791708ECF27CF11DB3D797D6CFE474453BD4BFADB768094B2147814D81C7CBAF8228DCAF5564B5891F5EF6A860EB2E323CB82AB868D8EA048880D63B0DE5341F1B3D53297B928A11E15F25E5
310
148990F710747C3509ED14909C552EBE3973246FCE55D00564D8310BC3EBC5085D08D806799B77D6C57FDF5E55837F9E934F09C03C729271B64F12D0A9F9E938107CAF7BF1EC8CF1BB9B42363D33070F4CACB425E605DDB0A34A12BB936DE286B9887A4E2E558F0886498BFF49C311D96C277CF6A9FC0D75AD0ECC5226D7E0
310
E3572012E56D7FDE4410CEC7A6D0F997F225A2055B8B92E3956E875AE4993CB3D4C9063AF98FD45E1BAB165640A43439A2C9181A7C355B297C0A0CCFFAE19B6FA3C2BA238A885FBC98B8F6DAF4B94B97304878DF4D8BFF6A4AEDF79E90ED4E68F00CD7299F4E0D83E35601AF0CBEF18C1E870E74758FA91F5131075004DB3C
310
FCF09AE1DABC11957FD9808C92E8A678CE9DBE40DDA0E0D1D505AAFBCBA208232BFB6FB3704E8985E61ADE53DE74152F5C7DE74B1DEDCD37DC3E8FB30D7EBA8B9EFFC3606BF90B8D438279CB7709FC7C00D327F41817EEA71CD9E49FE9C8C9A81C70915D9F0F15958EC5AA4C3BBFAF46986B90F188BDB24B89DE3C6F29EC3E
310
6F66D84856EE96A35E657CA41B41EFD8DBFA16AD6E91439EA92B40B21C053249F51AE50EB0B24C770FFAF40DF12C8436366819C48E36547D4E7B72FE2BBF10828583057814A668BDF183F6B2E58DFB151103E56303E63D00F39C27C4661605DB644D19175D02E3F0241E8FC3458D17AAAADB117CE9EEA690D0DB01E634878C
310
04C2C9310B69FCAB831151E3AD293BEF6E46B0ABCECB50F5939B39C613D41E81FAE8D34CAE3C4566B761D37185FE864AC32FCB71AEF39DAA5BAB88609BB980CD2F07A8F941653B529567726E2B2A58D079DD57E1E5E31426CF184A04D7B03B985F276D47406AF276FE32E3328BA866EB1FD39BEF57863A317634AA5FE46740
310
9B3873F5069EF0D71AF00AD189D17BA1974ECDB2D623E9E14086386A6AAB5807825C37B015BFE892AFD154920EC437EB945D958E18622E1E0FE2FA06557CE4BB9BBD05A2D40E774DA2B65473791E314B7D6C886820B2FCFE4AA272B3B8B15E7344A145E8AF919B5454D89D36D413E87211186BF6F645E5EC94DCCE8E1C7990
310
22E4EC9BC86D7A0F2AFB1FC4B2CE48F84B3F49ECE65BAD24CADCC07EFF39AB06BE9E6B27A059938EA7208838455383DDBCFCD967DDE4650EF92A14FF933C975DB20BD7FEEBC4487576485963D757D16340D9599FEB362F775F38CA4185A86F74B629C81B133644A3B18FD056E997E0734F9BE26D11C0AAFC669E2AC9FC41D2
310
81F8B2E1C35AE27BCE05F3DA295488096688719D974DF1B5D182DB7792288697F8763CFB43562C1CDEE11C4AABD5C22B6E33F6F389CFC3477C5919DC0D533F8A7A1846B7ADB60ABDC26C43D0CFC8910B7C15EE22675BD02702ED39DB77A87A192CA7A543E6205B979B9F5A6B512A3CA799E198B2D5797C0AF8D1D872CA455D
310
4D431A7879D4DD76110B5FF7F4176B54477A9EB5E4A5D11214FDA585F0382751D8E2582BA5D2075053298FEB8F1537304E32CB22C2E2B693DC0A760B1DFCA751BDC445AFDCBB12820ED85F6D5298933C7EF1211E9E057684056CDA3FEF3BB6052355E162DF27C59E965A8DDB7F9437EB72CDDA3A090DE65A5B2F50326247B7
310
EC67B73ACC7047FC9B353D6EE990F772207C6EC52B39DC2F3C0754821DAB559F7C1809C7D0DD5B0499D0442E0A6E391B3D5DB46D11E731E6794EC77523FBDAA242ED67F9FA1FB684255671F63C9BCFE6E7E896D51001A6113EF2298BA494E0B0980D1FA5B9D60796554C02256B1E0345FB7C6186B6A19D2DCA270416262845
310
FA4F42DB5D9B0A0B6F07FCA2E56C242522E001E0CEB734AF310FC8BFB57E38E03AACE93B3326A2197891E68452B26A6307FDABFEE0223D3C03C3C73D2D5BC054C8311F12004CAE488E5C29287F8156A2CAA4AD0D7BE6B97264E4139F437CE73ADF52E5134C52B819777C18B323A5924E4F67AFD13B1CDC3A61793A79FAF5C0
310
CEB718E441071E797C6DCCB9EFCF7E4A1E9F3DF3C2F9C9E8294E9586868788C972857FB0556D7A26941A7EEB9B580AD78EC40B85DC906B4120A563CA3B87797ED612D3B035962BB75F6515A393F4CB057F564CDF54F2E5A024514E6A1F901DB80C7E70B1FC05E356A7E72FABF4775B3E3FB8F70A2A8E7B6A94542BB3041579
310
78CCC999E707A29CC795E67A59CC546A5D47B368954CA7B6E75EC9E1F6FC73CE3B4F71F8CB1A6B15923D61EAAEB14626AAA9D04A26EB9C66CD1BE86CA31A5D8703DE04CD1EBCE4F5CCB62F93909AD11E55799A781A956ED27D3E738F4538CB04ADABC7DAEF20BC35BA6A90BCC1DC61BA05F20D8832FFB9BC9B15E2DB838A0A
310
FBB7E0C82A562127E0446894F427794C3037186F622BF24DE1B00AA10A23BFA47B2A180D6DA5AD6F7326FEB8C100C2D7142EB2A0B2A9D1008A09BA343D70E054AB69E2A7EDB783CBD92537FAF4A44D1296AC2792729104B3276C276C951D0CF3CF3F1E6B017720A7B8505A5FF9589365979678C36F1BAF759EAF57C60F1FF5
310
FE9DCF5F8E764FF25A2D06CF25117A8FED51884C13B2B750DB0E4F5E3D64124FCF11F0AD8F1CC3B3DA4B38ED22BF1CB2585EE6BFEBBA63FBFD44F9537B9B37BDD6B358720F98A8125AED4349CCFEB0E135F19E208A04CA7E2B10711185D72E381F448036EF57C9F874E54A971CA37A639E986AC0226DC5AA00D5B14FEA9192
310
234B3DE617814FC221C92F33F1D392F297731B567FD98FD91D989379AF567A65B8ADF177591DB90FBEA99BF4ED11B16E50A0AB1DBF1156D034BBE04D69D08F939D8E92BF525A1DDAFF80ECBC95D8F45D3FDD289FD23F7D8B452F8EBB34EC082DEEE68E18EDDF072060FAD2AB1504DD4879BF67099FC58F6E9DEFBF645D1633
310
4A3E9A127C6F1AF6132CF287E433B43A0EE93812B4AA0B194E03EE3FF91EF9C6ED0074A2F6EB18A96A7C9890B1FCDA1F2095E944DB911ED54C60DF16FB74C8CE9BDC7C54C4F14078CF73C2FFF1F1BBCCD7CF64F71407EA1683DBC410D226627F66E509060D5C0AFD611DE681D509DB8DD12FB1265B03C6F5C55FF4C30BD941
310
87FF692B4F152982502F193098A789526A038AB529A52BC0DC4FB6285CBAC10A8B8DB75DCD9BDABBB221E27D1F8DA9F5EE5926A1C8AA9BA9BC09239C6A7F12914EA3B59EFF7AAEC3FFCCE56F1C5C2980AD072793527565E774F4631DB178CEEC691B1F367BEA0CF2907E1D6B854D527065979DDEF002D8B2ACEA7CE21AE297
310
737EDE1D45B31233B73FEA35BCFDD0B09721FDBAF6432681F2FD10C3E9EFB246FD6E854B344ACC9D8A0EEF876A7314B49B6A499FC650B099D650DBFEC7638ADFD245E2B7839DA5AC5F7D5623FC0ECEEC8653FC9B2BDD1AD4D00A566FBA7186DD3C9CD26512551637498CADB950FEC71ADB9A5524285DE328B8EC7EC75D2345
310
AEC6A27C42AF6D9B92155315C80DBFCABBB7DA0FAE425C4FB896B15C9BFAC4FE67DF5A23D30C93DA4D8F36FB15D100050DA6062E22AEC5F4DAC4F6FEEF97AE05DE63C6D38F9E068A20BC5E3B6BCD75320C5090924E7F93640A7735B1A43451C2D91EE62C6238B797349E59890AF3A520DF4A87095F3ABEC2E61F0593416CE4
310
6CDCBE0E00E2523FCCD04408588B5B6C9DB6459C786CE378770B54F51DA3A5E1DF2A3349BEAAC234A6CF8993B598B3B25B4B113E353A4D750FA7534749430F3EBF2512E7EA3FD43C6AB9A1F765A58463B306721A15D224FAFE8C6F5E3432D57EE697DA0DD5A9D4866A8BCCAAA9DFF1F06047851408FEC060471D0E3EB86BFA
310
F46E4B5E60311DC3E3CEA147C75CF971BE74689507154FF2D2E92F15CDB2B9182B11459FD8ACAC5A85F174BC94A7F4EE4C4F5CAFA7C02E37BF0BC77B7DCD0C047BC316F562A01A441AFA7931CC84A28CB9F4AA367EB515778F29BFE61195FA671F4352E5E46E3A64773F1F76EE5EB36D7BCE9BCEAD837A4D77F8DB8C92AEEF
310
6711920D7C7D0F76B0FD0EB7AB83724CD35BCA7D36DDDF5FBB7FF6F04A91F3E2BB3B8F1A43CD659639507FF6331C5F697BCC782AE57D757A27D97F1AB9E0AEDB43F92F1B2AACDF5FEC8ADBAF9F814E2027003BA2F9E144B1938A7A04050AE5D953B82C45619165C813A10E76DD6906B3C16438064D14CDA713AEC420034613
310
E1AC7241904A49FBF87409AFB1FCB9B72FE7933A87D8FBEDACECE4EDCF6A4FE9FB94D5DEB74FAB7CFEAE17EE965DF980DCCA2D04134994F9A2E94D2265DA4FE6AA7B7AC15FACAC2B5ABBCD7DFF542C5314FDAB2E1B9D8B65220B8E2B638BE008E8DCA22678C820C5053664D15E89F2D735B51A84955E81A443545E9FF787BE
310
0FA700A76D136C27DA179A7C6E8939E01BE756E19CB292798063D8B97F44E8A27BCF3A614FEB8BE974A718E86F7EC99B53CA35FA24F61F2B07266684623A3D4CF073E511F3A10A8FDAFAF0078C577F4DF9D339FE7862E5FA47CF4344209E5BF76D783B1B48E152AD281B15FCB934DCDA49CEC5706B1EE8B460F435324A5CAD
310
154725E21AB8044B75A557A79F6C807B9340AA3D92503E866F4274412926C8C504E4D5EF8C0E68DD0B028781A6B4054F11CF18941F101C57CCC796773ABC8DED9CD91FE5788806C05E548895354AEAC96546D55B0E94A59F148D061F42AA398D822CDECA4CDE79E13469BDCC44FDC990F366BA5978C15F97ED80CBFD73B0CD
310
9B8B83A4F6845BDFBFAF034019473FB9A63BD55D3A4A7284757071574029A4D016DCCBE95DD679EF3C4880BF169422F8C89B68A988D2B13793CAED4F74DE7486C72DC94DF46B8E93D8E02EFCB1FF9B3BA10C8AE7F653DF94F4AF466CDDCEF5776687F7C4C14B63E4EED1719DC2EC482D7DBCC7AE518CDE3D5FF86D39000EC3
310
673C0044E1D308BF05F74D1B5F033A7D1BE7F74BC55BBE3E4A20F920946CA0271EB17BD2B80E5660ACB8A29A79F5E4BBA49D4D945B6EEF4A7EFEAA65E5555BBB57A7E15D2F83C69F30BBB978D2B39F1F26FC097424D39BB33CA3D87ABF64E307938B685BAD44F71556A30B7E712CA4FE600613C3E554B69ADE949A7CFE214D
310
F1FFF05CB82151EC6FC31950239F94CF7AD39DC473F6EA356E5EC2C4EFA04383CEFE985A127484366FBEE3C0EC4FEA363E4F6632AE781392FD45D67B63FB8DF70E82734F431FD3443172A0E30A83D60982D55FA6A2CF86DBA8382502ACC6CDEF3B907982EED1160E14863FA242F9757347E1544275CCDCF71ECD5F8621CBEA
310
326B8BA884AD7F825781923E66971F04010D574C541D8427A438A37EEF8AF88240EED7362C953F5A81DE2D56109CDE2524EA0F5D2F87308C0C47BD97AD605878AB8589E17CA83930CB5E0DCCD75853D68B1AB136594926DE426C367428E9334AFAFF90ECE221BB5DC9E5BB53D2CDEF954EAA9CD814F0E5725F1965DD458E5F
310
8487683AD86B9D0076BE3EE91EB1CECC5331A67A3F79D8B27587C12EC2A6A70474749F27B4C0BBAFB94B34189E88DC18964BE4121B9137FD516C7755356E50D6714E31ACD222621EBBCD1CFF81D87479056A9DA0E0B8EA19D24CF937DA89F78E8650CCBDC110AAB6C4E46DCBFD0446BA9E2060E81F314AC2031E88135E5476
310
AC0160EF5C0DD2EEF1B8B5CB2D198BE9A554A9093B5F7D7E4B5407DDFCA1D9C152FD97F55BFFFDFE802954DFEC8995B983E28AC92F1971E28F531DC407A1280EB125F64A72E617EFB27DFBCEDCDA2D6F2BDADA36873EE46B9BE1782998C63DA7182BC383FB6FD15DA472B175D7E8B4FC88F38D6E07FEAA3FA3CBB8F6B449EC
310
F14D2175E5C5CCA3A42ABF24CA6C9395AF74535F4DDB38CB84F56614B0FD32D7E19CA5CF988DB4449C40E23DF2B16772594554579094450F56F253CD25EA7F77366FB1CFE79696C428BB64D5A41E986189427E5E4D7E2DAE3D5BB4972B3DC44EAABDDDD63A2264ECFA5C786EB0EE1FDC5BE34FA0F08376869FD1E61EA06CAE
310
15191135445EE8F0394161C3266A596AA035572BB0C8876180D8B9C77D307DF9DCDF7365ABDA6F3A2366436457A4DFC1F259666569A9E4A79C817BDD5610E5200FCE894A358EC72858D50EF67545DA81C6FACE3D457BAF70367E1E6BDD9A952FB4F56247F58F523B97E640246051A72F79BE42FFA0B3187F63097F91C48B86
310
8586F714B0EBD5A00A8412C1236E1298F60C72BE6C96B82B404CADAA304AE9F303176B14BA53FBC2D5E86377E35542019E24D97B96A49B2C0E5006E7795954DEAF5DA58958839043C6C70BD3B1B33B6DC5C31316D8A6923F142E26F6711A2258AF977DDF1F970ECC4F1F2B434B96D81BEB6E89BF3BBB3C7C8CC80505070723
310
D6D7D7D3C8CA27CA164A26024FED94B12A86031867241DA53D929636DA600F050BC40CE48B8BA03D69224720DEE2ED2127390BDF5E6EA64527BBD4C4C63FA76BB801FEEC0E61218EC98A8A86CD8313781617877E66692839B9468CF4DB8E50A73986E558E309C0D6F676F921BE02F1185454DC75B111572FF9D27D85EA14C0
310
5AD7271225B391C4275659CA4A43759D0BA44639BE4C30A84DB7F67A41399FB95CBF923B1B1672ABC807C1590557FB18D811983FA97F5E609516D62281D38B1281F68FC75528C35E4CD7DF0F7DBB5E5DD69C414EBEA2F4A5B241B996BA77AE6C772E367408C633EA3E438B68563EA8BE7667F3A4C4FDEEA52ABD78A2820F44
310
3B7914A15F180018D231E64519C56A12F6CA7C8DAE18F06F6B769DBF92329EF6A5D18FBCE600F36BD8E8198DE5CDAA96181F3A756EBA5501CEE58F497EA4F418A2B82565B9BCC611713C0B708CCA1F398B78C5F7D03B3437CC18F13061F55C7BEDADD5ACB1DB0E36D3CE47FF6EA1A563A57E9649EA5D14D1A50EAA45746338
310
1C073777EF1600607BAF6428A7DDC079D47A204EF1E1F1F0589FB054D45E02CE623B3823C317C601E589E22B1E88B448524B86A82828E32345EC18AE17214B42F8C41C6D428016D9BA31DDCB47572561E5A402E5BA4FCE55F78AF7268524AA04130F3A20BA5D1E9F9948EA48FC8F5314FDB35E21898198060034ACE5E3E2BB
310
CA34092518F275190AF65F45867FF0900AA4B81F25427414C372BF51DC29AA855C5428EE1EEDD6B849AD60F6E73475C2D2523F8A2772C840A478DED18A8C5C91B085F255DC4F54EA7AA8947354FD17ECF8FB3B4A0DE7B483CAF3A1165EE05BBA413E5C1FEF3DE1D6B8F2F3F3251C17D9FCAB48A9AAF63AC773A0E413BBC46A
310
9ADF84A566FC920E4D8C52C9769EE3301CADEEEDD92B312E02E2A7E35B7F1E7D203FE5A7D75578B06E99D0E46FFADB8FDA17ED8880390DA29094202D6F645F76F6F96409CDA05495A96E84B04A00D1A6C6C81D7F3DE9376E828CCF144EE50E364ACCE7237EA0BFB5607ED1AC3CFE73794E5B61739D14DF1743441B1AC98F00
310
ECEDE9E7301FA29755FBEFA68C91EF2B314CF510537EF1ABFC9A762496280B546F5EDAAF8A5B387D469FC9A878A92828C88608453ACEC6094DCA54111E7AD5B2663DFE2DD151B7F123B9F4FEF8EE36AB125FD7AD52A59B1B765B3E3F73E3F73DEA93875004D2AFFE3CDE9493B87A9904DD052028949041A91DC0E1BA47BA71
310
4343FD5B25E0A6A09503AFC17C790058A836A324FE31D7893512E28230332F153181C1E018E1124EBE1BA262AA428A518237D1EA7275E48C5C561BD19ED6912EDD8367DA0F31E40EEAE9683DA9257525AEA7B632B97119E17145A90231768A4F3B9120FF32E8319B015E3CBE26F1A754177D8185345817C096B0CE443A955D
310
13AC15E1FB5DEEA0239EC32A3C92241A237B0B02FFCB4F93CF2B02570C8D192E2F2A68CEEB42F12E6F8CEEFF46C251E22B4341C56FB08CCE550E7A9D6F4D6564B9EA52A83D5BF2C6E03FA19D2775E15A8A7ACF30A13C259EE7F5EF2AC3BA354F1500E1A07FC63FB4686E2F12EC69719F9ECF5FE3F35598DF2CE944008CE78F
310
0911BA5BE5D0A34E0098FF038669C26030BA9B300303039852A8F6F496341737CA7E0D2E3AAA36DE0A70AA7D9CA0D54D9AD84B18A44C9E625475E1C97B93BEBB38DCE7D227E67A2D00F531436136355F243D1FC0D712C5765754FA22FCFFAE97919161F46D6E61ACB37D83777B385889770B50765B127768443A5C4D3A4E35
310
A3151111F146B7CA116F918A049F1C272F2CD7976C69A0068773451659A97E0F4A08FE604C3FF6CE7385DB19F4D3ABC8A0D80DA8A42096AC377DB49382B36E270B6FA7570188B4B7D1DDDDA82ACA487CCA5D38BD3BD039ADBAFA4ACFF27809239B722081E2EB9F145320553D183F28471C388BC8814E5045676767AB58A8E7
310
2D1CED2CA731379515D2E533E4CF0B39DFC625F97AC4836831A4DE330E87A8126FA17EBE583D614E71E22A8DBF2825599743E0640037303E8E1B1E8EA4E1ABFA4F62907B5E4E0E5DCFDAB417C36C6848A2B8D15F1E505434C0707E16B1CFC2A1C36A42BBF55734F8F4301DDC2A5110CEE8C0747F69519265012A2174BF4E95
310
5ECD4FDE095A3ABC70536B7AD0B9D7892F81287D667C108703C9B66A221E9A0929D030008F77FF6F5D2108EF5706FC87A3069B976F7C9FC3239D13D283CDEA83597461079FEEE049B0F392889898B7D87D31F8D60ED7B56B91823A8E4EDDB36C6172ECEE42BD42B12CD67994FA0F0DFAE9389356F4CD4425A4B8AA55CBF7EC
310
D585C6A2C2316791E43D5C06841ADBB226A87FD61515FFBB0167B74E56BD7F3E90A57A97FEDCBDF483A0D6699A8C0849CAEB4947FAA90D8E332D9DEBD9F4738C37DA0CAF9CF3DAA68BCB67C420459C7A64498D6E848E5CADE92BB6901F607AA331104A67F7CD650EE169B1DAE94D2C31C2F993632259B6957E246EFE4C5481
310
107B07118607700040E5812A2A2A38DA0076875258C753F60E0F2662C748EDD5F3F3686B8FC3BD6FE631ECCAA1E8B1C1E565AD117E54893E79F4672E32F9E46B2A183DFDCF3EECB4D4D077DBEA0DA254D256045109670050129E9B9B1A9E4A11344D61497A992778095151510C4BB7EF2009B63AA4360635312E4CF668B7E0
310
D3D85A8688E2BD83B569439892ADB63461930D428E0DE42E4AC57CE48DA5CC1449530D8BD3D6A0F08DF20C8E8F570F2CFFFCEA286E30969B4654D498A58D9DA782E19FE3F002181838925592C4A1EF0B332D88B61A92C644547BED490D3A42CFFAB70E36D961F694F6307F72FF15A1C79D5B1B5CEFD353D9E2B52566DEC8F8
310
F09CB3E8359C0F68EBBB7898243E34E12A015B2685AB303C04D3A9E00671FF3DFF0A184E4A2ABEB2B666AF5B3A209C73D8EF29DCDB069C9F391EEE9DD0F74C7BCDE16F8F02E3B8816122BBEB50665775B600549D8BB33A54A6BF940C028118BC6878C79958D6784F9DEAA6E26748386FFAF8D0D0101E2847B6563F5D8DC1D7
310
8F787BE00E2C941AE12148D4A81599FE8F68D4DA5CDED75530ADE138240300EE13B0FC13A1687FED6774662C05A2B7DFB186732F0D7A93545D8B0A6390AE5054D9CB582DA846D7A061B3358B45E2B52DDE63E114397EDB7E09233A579155D795BE76102CF277F4DF8B188C4F2879BEAE3C08347124BF9ED23B128259FE107D
310
31E34A652F090B30B39E0D9AF917B76A2806135621A8A60681F16AF216514BBD02711585B5B1AE823F4B2D0369EA5B6BCB863072727FFC871CA6C9AB79A814D989057E9470A3D238BC87CBB4A0EA49AFE2B86F22E499793CAA9047080450166BDC357524561E258C77CB697F1ABB32562CF87C3B7AA12F911EF19FB3E5C022
310
22E887D08202A60A17151F5E053A86B437771088B4FEE14D652C43E8D939995D34545E12E2FF93D4E366EAD25F10CB7DED141563C3D0C447AF06078A91135FD4B9611583CB4BF3BD167F2399CEAB0E0100F8FFC305F00F1711717173138B4B48C83022295DE657EFEDD97F238ECA80F528AFB4F8D67AD4E2594B9A3AA86D74
310
87EFC313BA95745C186F0CDD84CC12DC9CB0424B42203D351FD9C0A3AF10CC7F388E0329279087386421F194F4A29464C1DEF7EF8BE515E4A199DCD5B909342598D8FE6A231F71336248D5CEC5454455C7BE383B3BC7B260FED27F703FDC39A170F3827239102F59D4DEE7FEF82EAA1A5E4BA94DCC4CC44E7E2EDE20F24244
310
E4454369D2E87C3F823F193FD4FD27E1C23984B01898D15ABC20711A8A558054951A6AE280096BA36CBA439603B7B0B4C45F248C14B2383B4B5CD8ECECE4FF859AD4A6CA2326D020EF090F4041D28DB66E5256B56232CC52829DE8060BAE6BBF37D4B7469B822454FE93210A3E8D15E69FFCF01123222611C51C4FD0A041A0
310
CFA2471CF6BE38D2B20FA4C3525B5B8B586759475CF80ADFE67A284AC24651E52B8E683D24C2622642F27E7C3C22783BCF63648BC398BD6CD0D9C97E7E7E3EACB6126DB7A6C1FD9F1031302EE67ED96F22B77C7CA0239BB324207559B105E4693EB26EC46182A92C9C0DBD24F29B31C5C5AC1F84300E0E17CEEAC15F5736FA
310
4A98971E2F1423BFCD68D4BBD5F86E74B40A369F39507C88FCDB35D2DD8DEBEA4AF999E23CF2816D204200DF6E611781B9884C1AC8888B4DE397320472959434323A5A36B22A8E1F721A270DF3BD65E4A31C11FF048AFB0D8B7B6881423793963A23CFCE935FC189ED36FAE35C46DA3574C979E4394BE52084F3081837BE03
310
3396D2EBD80F1F691B273F660D2B32FA27A33B1DE4ADA5F0FA4651511102DFA410DDA86E065272CA314D5249DF91B06BB92807B28EFD54F08F7B525252782CD276DD02E6B0319B13DF87B1F6361AD6B28FC0D711CF445429B9E5A433CD493051C49A9E03DDB1B147D880253514A5DED88009018620EE229101C041950E2D8A
310
A8E1F5F5438E0C0C0C60EEDEE9E3E0C051948C69F84BB7B2A48A1F3C8EB9E6864687F4F4F6F6E2FA87608ADAF9C5E117B7C1A737E710769DA1D15ECE6A84502AA855398712D5FB51BE92E4EF824969CE18278798AC303C2C7980DD2500ADF8FB1E6D6C2FAAFF9987178923334A244758BAA01A9A1B70FA5097D01E1CC2A58D
310
AD0EC94CE6430AA9B0C10D75E3C6BAC670EFBADEE1607739CE0FC18A2587E3EC3058562014C64219C69BC269082D5C2F4A659278D585755912176D78A1B641719C2A394CED495A1AC5D583FD2F5EDD93308EA7EAE8A6DD396598BDBD3D4CFED62D18A5BDFDE0DD5C80D1A89BA62697B131AE7CE9A6594138582F1B37D68F17
310
49AC7CB67A70695D48A4A056AC1FBD4E82358CEAE38F54B95A9016F9000F9879C0D9D131768635CA798895F27D6F1614F11F2838A83611AA51C9A3DDB539D42979C29F10465655C17BEC3E2760B80DCBF609198C7B171A531905F3EC218D696025975E986C6B4C666666787271F202805577DD5A3EF0CAFAF91B62DC4B2DB4
310
217A7606282F31D8DDBC290593BAA93EA6353AFA9939B877978481E15CFC9F2755CDC00C538F63A4BA3E80AE009B73CA0185687D339A507D165B74290D6EE46D5C58148F020C3668ABE9EF2F7549170DC80DB41FFC1D678FF19AEB10C7133832B104B80F691B3138F97A92D26E551F1F110400D45AC71A9B9AC41A1A1B1DAE
310
ED0B0810638EFFB511D46B121C6FEA0F38CD00E03CFFEB9713FE1F9C263E4DDEC160D0497FA9A132BA608584057FB15380825DE6C7FC3C667EE947D488A09898D8E939C4953BF4EC9836344D2CC6B2971B2A21A572B06096F4982D2CC7232D46E8EA69DC83722E267754D777F97F96D5DA74E1E75178084D0E70F12AD33E5F
310
71EF2AFA599B2BEBF60A5BE475F444F240CBFE8143C334E7ED9150FEEFEF7EB020C4DBED388DD1D6A167A76F3CBF119B578AE8CFA7736ACAFA4440A1C47185638A0D2F3EB5BDDEFDA958FB13CE4AA4923D5BF840392D45544329525749734866684BF7F8D9D54D892E19BCA9F829A0F8BFCBEEA6CFDFC61D74EA1A645ED7A1
310
FF241739F15694BD835B66FEC5677E40FE69BD3F91AE402F036537218A401CB0828604AD189E575015C6F3F6BBC8AC79CF6C70653847254B31551EFCBEB5978B9DB85D58D0FA41A9DFE9C624834AA04949D24B5AE6D299E072D152D12097920F14AA92C31C3B97E28B6C2E6E9C23D63043ECBBC0A60FDF5BD0C33C127EA8A3
310
308B8B6AFFEB28B4455BF6E7AF4FC6222728357EB8E46E85053E6A8843AB23295BF838ABDA94658FEF3F832F147046B4ACD6F7D48E8FCC9618582961C898D1C7A253C91BFECBDA6BA18A1FCF70755DCCEE2222F41B76D23CA98D0CB3D95F0CF66D57FFF65E2A90F5DF40FC3187621E981BD0BC1D992787212688976B94A8F0
310
C6EF646624B570B78E068826F87CE27041A95C9A4871FF65CC17FCB1639629AD6A9517000D63AC231F3D741CB8430777E7ECF80CE7A3F73C0F162F7E56AA71F4DA80A33CD6ACEE78E2C11FAC03DAFCE929B106F8F6B3ED2DC71FF994BD9CEF4E9A94896EF1B6E2B7B4978168BCF0847A3D2A4F1B0500B926E634B174548E9F
310
BAD27153FB5FC36799B1E6C7C38A94E1F9E996796D7B485E635D5287A2AE76FBD11A341DB3F8F810385BB7296391973DC6C37C452A9305AEBBE0CDB6C566DB59FE60C8E94B1FD090354BF51439FFD1B48D725228FFA88C84F686F547107A7A235665A4593B7C34D748C1AC8D56DD5DA861EEFBADDECBBD65117E65851F9035
310
1AEB65F0EFCFF4BCFEF24CB7A5879699FAC437A7AF9099186CF006BB923A59E37D7A36A29FD8D2CBB914A5E9D0A8FD212FBF796AE9A67958FF1D5D8B85F78F96219D4714EB919929241B6C018AAE0C02069F8D919961EC5DDFBFB7573E3AC8E08BFB7C8534BE6DE045B3CD63DBD71F7638BA2309CAE398EA3A7D8F98BBBC7A
310
EB367EFA5CFA27A9F8F2F52FE878058E6209C026453F8E7E8A237DFC389E9590F6059B397CFD65183BBF936E86896612A5B5FEE49DAC8455D026218AFEBEC12B3523A45B57B82C9C97E02ACFA1184DB18E48CF615DBF39C3CC6F0B4AE6BBEEA2E39D944E290302FA3DE33FA7E40296E2EF7BF1CD855BBECFAD0FD622BEE974
310
6FC4FDFDE545AE6E3BC234CADF83A0FB76DFB145BF3828AE3436368AC24989454F8FF70A177672C711CAA1A76107218CF948CA01F873520E7A2B118EBB161ABAD432932029628B6761590C98AB590C8C8C79798CE9F715BA696E839E9131A4BB68BE923F1747FBFF165331FFDD4D05997ACD168F12CA75348DAC04C7F509FE
310
83898A8B421181AF492861CE81E4A2DD0A30850CFA95E05F097FF70F9E777310D584A75BA7018922E271DAB1D785671157685B7D383D3E074DDB4F1E44EF04B07BAAC75A062077C54B9752C738C9D804D402E02851F3F89605AF189738C18C021D2139EAF72513824E10DDD3047BACC8521ED7E98B257D1166903B1B08FA6F
310
918FD7E162913FEC7D0EF4787E29C35FBA8C6E2C9C20E9AB30AE42CA2A01A090E7D010C1B5BF9CEE2A304BF3A987FB40D836979B79E18D70F257DA61E808472DD85B82761825779D6B90CAEB0F23360C6F80A7D7D77545E95B3DFF0CF96A827F9B5BCECD2C9698718417EF80FEEDEE938AFF55859D0D540B7FE09435583A6F
310
04874A0C7E8CF234DF4879722000167F5872CEC6BF3EF7E5A8CC8121E6A359227C8A29C95212F9F735BC72A887D56B8F309FC525BFB4FD767AAEC4AEFF249CFBBD2DE1AB9969A6155C7D8DABC307E47324C1F916C7BCFF40ABA5644E9FFB9238D19ADADA49D9610F01ABBA57E4DFCBDCCBB2B93C8953206C91DE01B0E2651A
310
6D6C31721915B31F7B7CBCE55466F6D70402788FA91D73BE4ADCBA99A35F17D6B83383704917D6833F0FA3CD45C926ADB8BC17999A4A0AFBCE2541F7B8CF4C2F5FBA611B3E626D64407CB32C122DFF4EF8674D6EDBB86C8F7C6A16D50FA685E2CCA34F8F7D1D8265BB0042E9D7F1F666F7BE5FAA5184DF58E12122A42EF02F
310
461B3F369AC746F96528AD208512AB56844CF75B97F352DF7995024FB02855385854F3798670D01CAC771AC3E1889EC25F61A20C1F8CAB46898817F9C47E2CDA1F286BF2F358298709FE567C91133E2638C8B53975E753EA8BFD3578B5F7186B7BF084EBA3F77BAC3132A5779902EC22AF2D2E79F42D324E083386DAEE9810
310
D1B44A5DAA54513C7A71E52A4AB9257D975B621308FE4D2141CC3DCFE946C154A3C1DFCCA7629EC69ACFA831634ADDA93C0388D2A9A2DDAFCF957C6995BCE7FBB6DC4EBAE79E63EB08E9A25F52F67076F7093CA545CA3053B5BF576DEAD4E0017143C5F759F32B2D6F145B52B67B48909B7C7FCA6586EE385A2189C16932CB
310
6DDFD9152AE317C430492A578ED27B72D85D40C7C93C097939E1B50F4D67F05334FE9DC362C30B7FF561B95259138ECFD9274C8D695C31B14D4EAA9F3D7FA8DDF652F8C5DEFA23284C799B7D94416DEE81E05A866302DC70192A5368EA65E1CED8BF107A1E2D3119A71E85DC1A7B0C1E93274CE04DD0F2ABC8AC7C987FDB00
310
2B6F81757B43502EF7A0D92E416494FAEEA4C9C090CD9557AA4D532F4996A272B94355C5A0E4974EEA9627476F30809B94D8D8D860062E02204643BEC7D0438AF800FC7E2B26955D595421E83C69E1A07E0E3122285835F014AD538188CF9737CE76D464A353FA55A001AB2526B84E985083693BC76FE211CA1D000679C889
310
E3C009832C87E1AC2EDD05C302557422DF0800E316FCAC86978A371F025A6C7DAA9F333E7BD160403A1A06EA75AA9888FF01504B03041400060808007B42744751464CB48900000043010000360000006662782F32433845313336382D383434392D343738312D384637452D3032453430384537323044452F646972656374
310
6F72792E786D6C9D8F310EC2300C45AF127987122606C71DD918B841D4B851A43646695A717C52A85029031293A5A76FBF6FACEF7DA7264E43906840EF0FA03836E242F406C6DCEE4EA06AC22492573150D1F66C60C640E8938CB705396EEDD86DE9B5042FE27813D640EA63BB001C722AF6E55CB61E4863F58284D5D3F53D
310
D715CE1C3985E63FD7F1B7EBDD617E9F1E504B03041400060808007B427447B390E5C841070000201C0000340000006662782F32433845313336382D383434392D343738312D384637452D3032453430384537323044452F6F626A656374732E786D6CDD59596FDB3810FE2B84F665F741A78FD885E322B193C228D21635BA
310
D837819669871BEA002525CEFEFA1D52A42C2AB2A3F40016EB00B64251C3996FEED1ECFD2166E891F09CA6C9A5E53B9E854812A55B9AEC2FADB2D8D9130BBD9FA3194FD3A2B1CF42098EC9A52596ADF96CCFD332534B5BB2C3256BAFDE5EFF85F28824C44211C3797E69E5D13D89B183CB22DD92FCC1D9E2023BFBDDC1F19D
310
6AA34976CF7176DF3A2AC39C2405B00AEB0950511CF8E6BF20923B9FB96283B16DD06F5B70669B2B053719A5495EE0247AC155EBB8E00457ADE306FE7079138CA6F668381CD8C371E0DBD7B7D74BDBBF18788BF16231BDBA995A683EDBA429AB159091640B5A7CB6E6FECC15776AF1150A5D7C4769929048A1D9B5614B145D
310
4AF2362606B0BE14ADA1904AD6C6C2A0A7F027B6F502C560C9405B0BA77F9BD69B6EFE0610F23E56CA7322AC3C2F38E85A615FF9833773AB55432F3447312E08A7982146371C7350106CAD14649011DE2248218199D4A2A6D7E4150CFB755FEAE272573226FCD79A4B4F0BC11F49914BCEE83F841FB96F9E063C81B4254D8A
310
8912B678CE80C474E6CAC5EADE2050372B20D18EE13D580B8829360D82165E0B110B564B6BFEF17673588BF8D07D78C6D38CF042589E7466E5775A830DD302E3EB014A85ABA9BB232A5F01FA4F807CCD0B9A81E6383D0C0F432D3BC749BE4B790CDA411EB23DF8F290B87C713573EB87E70819B1F214A6E0B63F0953430CE3
310
EC06A4F3D923187DCA074AB8758419D8F41D4D849F83A12096C212C4FBDDE660CD57104C61119EC20CA487BF992B2E11FC547420DEB434D4157E7B284A3B4CDBCF8EBAFA0036C36954ABCA90F114BEA39F82EFD572FD715DF21D8EC89D72EC25D9D18416904CBB193240375CFEDBEA93F4C80F2CDD60767CDAD814C131FB54
310
C48D0EB5AC955A90D40B7022D270A519B97247C1DB19C30949CB5CAD77C5A92865290F37CF61E5C29D67FDA96DA03A4C1940672C83E41E719A094CACB9D2561D089D86A06061982B0BDC575A0D37659C85384ECB4484DA97A6D8E603E28CB044A02AA969C3D65EABC96EE96E57E610BC3A492E0C20953F6BC295850F218E75
310
F1CBC98E6348A2691252C8C1E02C9D271807D4E09DE739276C1752C6CA38DC510679248C7176827E4F099A99EB813C3FA57CDB49D0B42CED93DA8604E00A580D92CE5655CC573AE5E4918A3253E6339D0D8C1DAA0EB5E6C313E942648A0E40B5314A33876AC91B0FFC2B7B12DC8EECE12418DBD7C1746A5F8DC6CB2BCFBF5E
310
040B8047598944E018AD9AF90E5429CA1CC3FF8AFB32DE249832B82128E06DF6EEBDCC9E972E844637584C6EFCC178624F86C3A93DBC98F8F6E4F6E2C6F6829BA137B9B908BCE58DCB499E963C22B91BB85EA84D324BF6A7B8AA63A9C85A203F7C2B48A1AC793DD9697DB585F91FC7D0764E3094F85F0DA275ECEA2808FB06
310
51F1683B84E2E841A4A83082AAAFD37D5A41B4CD47579C7B635CF69C81273FBE3F0DBC6930998E6B633F1BA8E5393F1CE7BA2488A0EF2C8B30CD70448BEE84DAC2A5679C7E536E7106FE08013AF5777DC8F93CA30E09698CF724DC61D1257404C6D724E8CC617B96E6394D482EBBBC17D55F8BA6E7403165E6DC0E23A47918
310
93027F8FFDC9B6A165D3109B5908FD68212602AF5605B541AB0EE41445D1FD42E296F23F87398E335675BAAF61E0071A02DDE374599C605A1CF108F616E222F4B6440E2E5EA35EB3AFEB834EADB5A94FBF9BFC0978745DF30BE1D147F42F9D9C913F159F090495F1C81F5C6845BC86953EAA107D1C2BA1F38C9EC32742F7F7
310
BD0ACD7E3A69946C55515D9018DA585C94BC97BF8E47DE8B83545C683944E3A4371687B27FD31D1CA0271BB853E56DE318A843690273AE5E82BC90A2D384A52EE44C4F8CAEDEE0D76795DDA4FAC3F1F29757CC4DE78BA1D0EB830354CB550056D1C7A8A93BAB6EA31ECA9F701141205DCB5FFB1A3C624BB6C7C6CC20D755A2
310
EBFAF4B5EA7925026A0C135B2CE2EC9DB8605F31A81ABAE7DCFD50156D6EB5BE1289CD81E1F4910F836993D6E70FEB161558E9FDF4178111796A5150AB0BD10D9F21F56D75ECF95B149444DF56671EFF4F74145A818DCE02A6C179CA280CE5C916ED490AD91BC60E3DBA0D1E935C66E56397A2DF08F478FAB19AA91678C374
310
8F13DD63184C33D58B95110C4521635E5A6A1DFD066350318994C329E701DA3015C32C54727A6981C51614BA2D6703E32C393C94D45BE34A706C9CEC45BEAF9EAAFF3F3EF6A2FBAAF7F4C1454966381314B6997C4F00555F75633EFB7ED1353B081770B9298B5A98E3C2511A05827E2150090753BF0705EF010A8AF372F98E
310
DC6334A4BD26F367EDA0A26A1798EFE578BD619357CB2FAE988CAF3EA38C957BA1CE73DDAF41C9165D372BAB29D40C0C4389996151432EDEB95F780AAF9862744BC108D0EF87C9F80F7791C6719A544BEE957A5185D6F7F0DA69EBEA911FB4F19E3F76E514408DF5C30DCE8983B7F9032C806A3915B3D10A62C300EA68DA30
310
00AD11A10B78CCD8BF5A22551B352624CDB02BE091337D048E24DEE508B7696E680C20C117802B79F378A117662E8721F8FC5F504B03041400060808007B4274476D2F4B97E1000000550100003C0000006662782F32433845313336382D383434392D343738312D384637452D3032453430384537323044452F7265736F75
310
726365732F322F636E782E786D6C4D90DD6A032110855F65117AB9FE2C0DA4C1352FD1ABDC04AB93AD449DC59F92BE7D35B5D0AB19CEF918CE1C797E043F7D41CA0EE34A04E5648268D0BAB8ADA496DB7C24D359C98458FE61648A3AC04ABA4C94DC12D67D48166EBAFAAE7A17EF43E4D70D222467AE7BDCC864BCCE7925D9
310
7C42D054D78216F29D5A5D34153441C69A0CB413C50518274C025DC012B5707198859817FECE8F27F1763ABC5E24EBA4921F887EF02E1648B8BF2CDC605B634BC425EB809235B941F5379AF1178FB67892355BC95C52EB6060E57B6F980B7A03F6447E5D25597FB28D67036DF642D40F504B03041400060808007B427447FF
310
15A4A45D000000800000003A0000006662782F32433845313336382D383434392D343738312D384637452D3032453430384537323044452F7265736F75726365732F636E782E786D6C4D8B3B0E80201005AF42B6F75B59F0390B113044D83508C6E30BC6C26AF226F3B8BA6360974DA7271430F523308B2B198F9B80925DB7
310
00539227A2FCCB80A18E5640D320F996A81C9F32D6E9129A0D1EF74FCE750E6D57BC7165FBCA07504B03041400060808007B427447905738924301000056050000300000006662782F32433845313336382D383434392D343738312D384637452D3032453430384537323044452F636E782E786D6CCD94416AC3301045AF62
310
045D5AB64303699015E8A227E8A27427CB135789AD31D2A834B7AF943A494B09ED2290ECC4E809FE9FF91AB1FA18FAEC1D9C37686B56F192656035B6C676350BB4CE172C5B49E110E91BC632AB06A8592A33293A87619C4A2DAC55E853B537763B151591334D20F02CD3BDF2BE665EBFC1A0B80A842DF82D6F15295E71071E
310
83D310DF9319607AAF1D288296C95959CDF3AACA67E573B958560FCBF9FDAB2812294583D84FBCB1040EC7BB59A9311E6D94538A2201520467262A7960F2A48D37C68A22DE4BE1A35EDB4D1CEDC6C48D636FB4A2D8A8023501E511023588E20B96A2488E7FF87E7A7C396988A7D638D0846E77B53654E7DA7094C66322FED7
310
853DF897796C36D1F2F5E67ED6F024EC62760FC9F531BABF9310F3A46CD7DFE207384ABB7CFEE36221A36FD1F441D9853C17FB1518079F36A2FC04504B03041400060808007B4274473FA72FDF7D000000A30000000B0000006662782F636E782E786D6C4D8C410EC2201405AF42FE1E0524F24DA05D28DEA3B1B4215268B0
310
188F2F982E5CBD64F26674FF590279BBFCF2291AE00706C4C5471A7D9C0D946DA208A4EF744E69FBBB0189C3E20C340C9D9E732AEB8E46370D25341A7C7CEE505CD1F2D319294A79A15221A778579632612543AB04BBD96A1C9B52E7D7ABDBF2DD17504B03041400060808007B427447A6D797065F00000082000000070000
310
00636E782E786D6C4DCB3B0E80201045D1AD90E9FD7516806B51190811670C8A61F982B1B0BAC9C97B72CA7B1037C6D3332918DA1E04D2CAC69353902EDB8C20262D23F3F59B81A079470595414B17391D1F19B4730A5583A7ED43BBE4025D9592775E5ADFFA01504B03041400060808007B427447ECFD112DA80000002601
310
0000130000005B436F6E74656E745F54797065735D2E786D6C7D4F4B0EC22010BD0A61DF525D18634ABB506FE00510A79458060253536F2FD89D5197F3FED3F68B9BD80362B21E25DFD40D6780DADF2C1AC9671AAA3D677DD75E9E0112CB5A4C928F44E12044D22338956A1F003333F8E814E5331A1194BE2B0362DB343BA1
310
3D122055543278D79E6050F344ECBC6478EDCD76CE8EABAE5449AE4298AC56946789C28AAFBEABC53F3EAF09A84A1441B91F0101CD4780756578C173A578FFDDBD00504B03041400060808007B4274473DEE336E64000000790000001B0000006175746F6465736B2D64657369676E2D7061636B6167652E786D6C35CBC10E
310
83200C00D05F21DCA56CA76D41FC96062B120735B69A7DBE268BB7777961F8D5AF396893C2ADB70FE7ADA196782C2DF776D7A97B5933C430F15651E5469C55D70F80A4992A3ADC954792C525AE70A1E4D6AD9816CC044FEFDF01FE3FDE907802504B03041400060808007B427447F5104F47F30000008E0100003D00000066
310
62782F32433845313336382D383434392D343738312D384637452D3032453430384537323044452F7265736F75726365732F322F636F72652E786D6C8550CB6EC32010FC156BEFD8606C358E3051E3C45FD0536F08131725068B47D5CF2FC4AED49E7AD95D0D33B3ECB0D3D7F2283E95F3DA9A1E4889A15046DA499BB98718
310
6EE800C58933676DF84583C28845F59061E06C7636AE3B24AD09CA64D4D849EDA0F05E0528E4230D3D78F9A116518A1812C3DFCB55C8BB985549CA8DC7598C7ADAA57A4A6EFAA695033E0E74A0F4DCA086E2542E75875EAFB845E7910EF87AE9E84B37B22A8B390B7AF9D92E9D12414DC06B4C5A4408AAF11B3E1C49776C9B
310
77566526673EB874F3BE345F97E8ACDAD03F6E719DFE778BDA045AEF6E9BC20327E973CF07CEAA9C4E6ACFE852CF49F26F504B03041400060808007B4274470EEF40FCF9000000960100003B0000006662782F32433845313336382D383434392D343738312D384637452D3032453430384537323044452F7265736F757263
310
65732F636F72652E786D6C8550CB6EC32010FC156BEFD86012358E3051E3245FD0536F086F5C9418221E553FBF10BB527BEA8545B333B3BB230E5FF3BDFA441F8CB33DB09A428556BBD1D8A98714AF6407D5410AEF5CFC4583CAAA197B2830483179971E2BA49D8D680B6ADD882BA842C00895BEE74F0F417FE0AC6A956266
310
845BFD50FAA626AC59BDF0A448C98CABD48CD9CD5C0D7A9097810F9C1F3764C3697E4E6D475ECF744B8E173ED0F3A9E32FDD4534452C4534F3CF74ED51451C41B6946D0963A4A56F74B767DD7EBB79174D614A11A2CF37AF43CB75203D0697BCC6209AA5FBC7353DC6FF5D93B191B7ABEBA20820595EF2D990A22929E5F28C
310
30D792A8FC06504B03041400060808007B42744740E87AB9F0000000B1010000310000006662782F32433845313336382D383434392D343738312D384637452D3032453430384537323044452F636F72652E786D6C8D50CB6EC32010FC156BEFD8E03835893039A4EE17F4D41B02E2A0C460F188FAF985D895DA5B4E8B6667
310
98D961A7EFF95E3DB40FC6D901488DA1D2563A65EC34408A1744A13A71E69D8B7F68505931EB010A0C9C4DDEA56583A4B351DB825AA7F4068A1074844ADEF3638020AF7A16B5483133C2AD5E84BC8949D7A45E799C4533FF4AA5D7226A05BCC5648F08412DFEC4F4480EC77DF7C59AC2E42C25A3362BA3B2BBB918EDB3E44C
310
47B27BA38876DD01753D25887EF423C2EDD8613AF62D7E1F5953C49C85E8F3CDDB27E5BA57E5ABF05FE6B4A817321B1B77ED66B82A027092F33C179C35A5C03C9EEDE659CAE63F504B03041400060808007B42744711E5DC6753010000DD0200000C0000006662782F636F72652E786D6C8D52CB6E833010FC15E43B601E51
310
93C8386A5E5FD0536F8E71A815B091B1513EBF6B1EA21C9A5648C69ADD9DD919991C9E4D1DF4C27452AB0225114681505C9752550572F61E6E5170A0C4686D7FB4A140B14614C8C38892CA68D74E10D7CA0AE551A54B3181ACEB844501AFE152A08E7F898645CC59E8E81E51CBF88355224AA2B18F12E764398DCA12D8E45D
310
0A83E8F5949DB2EC98877986E138A7BBF0FD8237E1F19A9DF0E5BCCBDE765712FB614AAC6C66756E04B3A24434C5C9264C9230C51F78BB4F76FB4DFE4962DF4949670D789E44BD3B44EFB72789477CC5E7DAF26F3E2795CDD2896F9CE8104D60BDA14049ECF381DF10DE3A431086FC2CBBD5B3850740BDE0569B1C2AA5764B
310
A967B513408D83E123F15805E681E0379EF405CF6B0E088AA90A566316AE3767BDFA7AA75698B0B7CF4069D3B07A596E5C713917A195A5799CEB5A9BFF4CCF56E73063FF30E937504B03041400060808007B427447C3000FDB08010000B201000008000000636F72652E786D6C8D50416EC32010FC0ADABB6D30B61A4798A8
310
719217F4D41B35C441B1C1021CB5BF2FC4AED4DE7A61D1CCECCEECB2C3E734A287725E5BD302C93120657A2BB5195A58C235DB013A70E6AC0DBF64808C98540B0906CE06679779837A6B8232093556AA0D14DEAB00A81FE3A705DFDFD42472B184A8F0F77C16FD5D0C2A27F9AAE32CE8E9A7B5774A0425819798D419215989
310
DFF06E4F9A7D5DBDB32229395B162D372B2DA3BBBE6AE5805F3ADA517AACB28AE2F89CCA267B3DE33A3B5E6887CFA786BE341756A466CE7C7071E76D48CC1990178FE4CB8A95E2ECC3DA7113C4501259337E01C7AC48C49FD0CB2CFF115A9B40CB6DE0DAE1819318E84944E374C1589EE78D355D9B7F03504B010214001400
310
060808007B4274470000000000000000000000003700000000000000000000000000000000006662782F32433845313336382D383434392D343738312D384637452D3032453430384537323044452F617474726962757465732E62696E504B010214001400060808007B427447000000000000000000000000350000000000
310
0000000000000000550000006662782F32433845313336382D383434392D343738312D384637452D3032453430384537323044452F76657274696365732E62696E504B010214001400060808007B427447F270F13306000000040000003600000000000000000000000000A80000006662782F32433845313336382D383434
310
392D343738312D384637452D3032453430384537323044452F747269616E676C65732E62696E504B010214001400060808007B42744788E57597CD3F0000904100004200000000000000000000000000020100006662782F32433845313336382D383434392D343738312D384637452D3032453430384537323044452F7265
310
736F75726365732F322F305F67656E657269632E706E67504B010214001400060808007B42744751464CB4890000004301000036000000000000000000000000002F4100006662782F32433845313336382D383434392D343738312D384637452D3032453430384537323044452F6469726563746F72792E786D6C504B0102
310
14001400060808007B427447B390E5C841070000201C000034000000000000000000000000000C4200006662782F32433845313336382D383434392D343738312D384637452D3032453430384537323044452F6F626A656374732E786D6C504B010214001400060808007B4274476D2F4B97E1000000550100003C00000000
310
0000000000000000009F4900006662782F32433845313336382D383434392D343738312D384637452D3032453430384537323044452F7265736F75726365732F322F636E782E786D6C504B010214001400060808007B427447FF15A4A45D000000800000003A00000000000000000000000000DA4A00006662782F32433845
310
313336382D383434392D343738312D384637452D3032453430384537323044452F7265736F75726365732F636E782E786D6C504B010214001400060808007B42744790573892430100005605000030000000000000000000000000008F4B00006662782F32433845313336382D383434392D343738312D384637452D303245
310
3430384537323044452F636E782E786D6C504B010214001400060808007B4274473FA72FDF7D000000A30000000B00000000000000000000000000204D00006662782F636E782E786D6C504B010214001400060808007B427447A6D797065F000000820000000700000000000000000000000000C64D0000636E782E786D6C
310
504B010214001400060808007B427447ECFD112DA80000002601000013000000000000000000000000004A4E00005B436F6E74656E745F54797065735D2E786D6C504B010214001400060808007B4274473DEE336E64000000790000001B00000000000000000000000000234F00006175746F6465736B2D64657369676E2D
310
7061636B6167652E786D6C504B010214001400060808007B427447F5104F47F30000008E0100003D00000000000000000000000000C04F00006662782F32433845313336382D383434392D343738312D384637452D3032453430384537323044452F7265736F75726365732F322F636F72652E786D6C504B01021400140006
310
0808007B4274470EEF40FCF9000000960100003B000000000000000000000000000E5100006662782F32433845313336382D383434392D343738312D384637452D3032453430384537323044452F7265736F75726365732F636F72652E786D6C504B010214001400060808007B42744740E87AB9F0000000B1010000310000
310
0000000000000000000000605200006662782F32433845313336382D383434392D343738312D384637452D3032453430384537323044452F636F72652E786D6C504B010214001400060808007B42744711E5DC6753010000DD0200000C000000000000000000000000009F5300006662782F636F72652E786D6C504B010214
310
001400060808007B427447C3000FDB08010000B201000008000000000000000000000000001C550000636F72652E786D6C504B050600000000120012002D0600004A5600000000
  0
ENDSEC
  0
EOF
